top separator

Home

Forum

FAQ

Contact Us

Link to Us

MetalTabs.com logo

Bands

0-9

A

B

C

D

E

F

G

H

I

J

K

L

M

N

O

P

Q

R

S

T

U

V

W

X

Y

Z

The Kovenant - "Acid Theatre" Bass Tab

Plain Text Version
More The Kovenant Tabs

Hits: 1166
Updated: 2005-10-12 06:20:19

By:

Robbie Filth


#----------------------------------PLEASE NOTE---------------------------------#
#This file is the author's own work and represents their interpretation of the #
#song. You may only use this file for private study, scholarship, or research. #
#Unless specified otherwise, this is NOT an official tab from the band members.#
#------------------------------------------------------------------------------#

  Visit MetalTabs.com for more metal tablature
  
Band: The Kovenant
Album: S.E.T.I.
Song: Acid Theatre
Record Label: Nuclear Blast
Tuning: B E A D

Listen to song for the exact rythms

0:09
---------------------------------------
---------------------------------------
-22-22-22-22-2-*cut*-22-22-0-1-11-1-1--
---------------------------------------X4

--------------------------------------------------------------------------
--------------------------------------------------------------------------
-------------------------------------------------------------------9-10-9-
-10-13-10-9-12-5---10-13-10-9-5-6-5---10-13-10-9-12-5---10-13-10-9--------X2

------------------------------------
------------------------------------
-22-22-22-22-2----22-22-0-1-11-1-1--
------------------------------------X4

--------------------------------------------------------------------------
--------------------------------------------------------------------------
-------------------------------------------------------------------9-10-9-
-10-13-10-9-12-5---10-13-10-9-5-6-5---10-13-10-9-12-5---10-13-10-9--------X2
                                                      misses out on 2nd time.

---------------------------------------------
---------------------------------------------
---------------------------------------------
-10-101010-101010-66-6-66-77-7-777-99-9-9-99-X4

2:05
--------------------------------------------
--------------------------------------------
-3333333333333333222/14--222-222/14-222-222-
--------------------------------------------X3

---------------------------------000000000000000--------333333334---
-----------------1111111111111111---------------44444444------------
-3333333333333333---------------------------------------------------
--------------------------------------------------------------------

3:02
---------------------------------------------
---------------------------------------------
---------------------------------------------
-10-101010-101010-66-6-66-77-7-777-99-9-9-99-X8

---------------------------------------
---------------------------------------
-22-22-22-22-2-*cut*-22-22-0-1-11-1-1--
---------------------------------------X4

----------------------
----------------------
-22-22-22-22-2-----2--
----------------------

That's all any corrctions mail them to septic_flesh241@hotmail.com

  Visit MetalTabs.com for more metal tablature

bottom separator

Contact Us | Privacy Policy | Disclaimer
Copyright © 2001-2014 MetalTabs.com. All Rights Reserved.