top separator

Home

Forum

What's New

Submit a Tab

FAQ

Links

Contact Us

Link to Us

MetalTabs.com logo

Bands

0-9

A

B

C

D

E

F

G

H

I

J

K

L

M

N

O

P

Q

R

S

T

U

V

W

X

Y

Z

Search

What

Where
 

Necrodeath - "Church's Black Book" Guitar Tab

Plain Text Version
More Necrodeath Tabs

Hits: 2646
Rated: 5.00 out of 5 (1 vote)
Updated: 2005-10-12 06:15:18

 

By:

Ema

sendpm.gif

email.gif

Important note
This tab is available online because we obtained explicit permission from Necrodeath or their label.


#----------------------------------PLEASE NOTE---------------------------------#
#This file is the author's own work and represents their interpretation of the #
#song. You may only use this file for private study, scholarship, or research. #
#Unless specified otherwise, this is NOT an official tab from the band members.#
#------------------------------------------------------------------------------#

  Visit MetalTabs.com for more metal tablature
  
CHURCH'S BLACK BOOK
 By NECRODEATH
 As Performed On BLACK AS A PITCH 2001

 Tabbed By Ema

 Tuning D



 FILL 1

|-------|
|-------|
|-------|
|-3-----|
|-3-----|
|-1-----|




 RIFF 1 INTRO x4

|-------0-------------------|
|-----------0---------------|
|---------------3-----------|
|-2-------------------3-----|
|-2-------------------3-----|
|-0-------------------1-----|




 RIFF 2A INTO VERSE x1

|GUITAR 1
|-------------------------------------------------|
|-------------------------------------------------|
|-------------------------------------------------|
|-------------------------------------------------|
|-2--------8p7------3p2-5-6-----------------6-7-6-|
|-00000000-----0000-----3-44444444-5p4-0000-4-5-4-|
| ........     ....       ........     ....
|
|GUITAR 2
|-------------------------------------------------|
|-------------------------------------------------|
|-------------------------------------------------|
|-------------------------------------------------|
|-2-----------------------------------------6-7-6-|
|-0-----------------------------------------4-5-4-|



|GUITAR 1
|-------------------------------------------------|
|-------------------------------------------------|
|-------------------------------------------------|
|-------------------------------------------------|
|-2--------8p7------3p2-5-6--------7\6------6-7-6-|
|-00000000-----0000-----3-44444444-5\4-4444-4-5-4-|
| ........     ....       ........     ....
|
|GUITAR 2
|-------------------------------------------------|
|-------------------------------------------------|
|-------------------------------------------------|
|-------------------5-4---------------------------|
|-2--------3--------3-2-5-6--------7--------6-7-6-|
|-0--------1------------3-4--------5--------4-5-4-|
   x        x                       x



 RIFF 2 VERSE x4

|-------------------------------------------------|
|-------------------------------------------------|
|-------------------------------------------------|
|-------------------------------------------------|
|-2--------8p7------3p2-5-6--------7\6------6-7-6-|
|-00000000-----0000-----3-44444444-5\4-4444-4-5-4-|
  ........     ....       ........     ....



 RIFF 3 CHORUS x4

|-----------------------|-----------------------|
|-----------------------|-----------------------|
|-----------------------|-----------------------|
|-9---9-10---6---6--7---|-9---9-10--------------|
|-7---7--8---4---4--5---|-7---7--8---6---6--7---|
|-----------------------|------------4---4--5---|



 RIFF 4 BREAK x2

|-------------------------|
|-------------------------|
|-------------------------|
|-9----10-----6-----7-----|
|-7-----8-----4-----5-----|
|-7-----8-----4-----5-----|




 RIFF 2B INTO VERSE x1

|-------------------------------------------------|
|-------------------------------------------------|
|-------------------------------------------------|
|-------------------5-4---------------------------|
|-2--------3p2------3-2-5-6--------7\6------6-7-6-|
|-00000000-1p0-0000-----3-44444444-5\4-4444-4-5-4-|
  ........     ....       ........     ....

                           BAR
|-------------------------------------------------|
|-------------------------------------------------|
|-------------------------------------------------|
|-------------------5-4---------------------------|
|-2--------3p2------3-2-5-6/\\\----7--------6-7-6-|
|-00000000-1p0-0000-----3-4/\\\----5--------4-5-4-|
  ........     ....                 x



 RIFF 2 VERSE x4

 RIFF 3 CHORUS x4

 RIFF 4 BREAK x2


 RIFF 5 INTERLUDE x

|GUITAR 1 x2
|---------------------------------|---------------------------------|
|---------------------------------|---------------------------------|
|---------------------------------|---------------------------------|
|-9-------------------------------|-7-------------------------------|
|-7-------------------------------|-5-------------------------------|
|-7-------------------------------|-5-------------------------------|
|
|
|GUITAR 2 x2
|---------7---------------7-------|-----------5---------------5-----|
|-----------8---------------8-----|---------6---6-----------6---6---|
|-------9-----9---------9-----9---|-------7-------7-------7-------7-|
|-----9---------9-----9---------9-|-----7---------------7-----------|
|---7---------------7-------------|---5---------------5-------------|
|-7---------------7---------------|-5---------------5---------------|



|GUITAR 1
|---------------------------------|---------------------------------|
|---------------------------------|---------------------------------|
|---------------------------------|---------------------------------|
|-4---------------5---------------|-7-------------------------------|
|-2---------------3---------------|-5-------------------------------|
|-2---------------3---------------|-5-------------------------------|
|
|
|GUITAR 2
|---------4---------------5-------|-----------5---------------5-----|
|-----------3---------------4-----|---------5---5-----------5---5---|
|-------4-----4---------5-----5---|-------5-------5-------5-------5-|
|-----4---------4-----5---------5-|-----7---------------7-----------|
|---2---------------3-------------|---7---------------7-------------|
|-2---------------3---------------|-5---------------5---------------|



|GUITAR 1
|---------------------------------|---------------------------------|
|---------------------------------|---------------------------------|
|---------------------------------|---------------------------------|
|-4---------------5---------------|-7---------------5-------3-------|
|-2---------------3---------------|-7---------------5-------3-------|
|-2---------------3---------------|-5---------------3-------1-------|
|
|
|GUITAR 2
|---------4---------------5-------|-----------5---------------------|
|-----------3---------------4-----|---------5---5-------------------|
|-------4-----4---------5-----5---|-------5-------5-------3-------1-|
|-----4---------4-----5---------5-|-----7---------------5-------3---|
|---2---------------3-------------|---7---------------5-------3-----|
|-2---------------3---------------|-5---------------3-------1-------|




 RIFF 1 INTRO x4

 RIFF 2A INTO VERSE x1

 RIFF 2 VERSE x4

 RIFF 3 CHORUS x12


 FILL 2 END

|--------------------------|
|--------------------------|
|--------------------------|
|-2------------------------|
|-2------------------------|
|-0------------------------|

  Visit MetalTabs.com for more metal tablature

bottom separator

Contact Us | Privacy Policy | Disclaimer | Legal Notice
Copyright © 2001-2014 MetalTabs.com. All Rights Reserved.