top separator

Home

Forum

What's New

Submit a Tab

FAQ

Links

Contact Us

Link to Us

MetalTabs.com logo

Bands

0-9

A

B

C

D

E

F

G

H

I

J

K

L

M

N

O

P

Q

R

S

T

U

V

W

X

Y

Z

Search

What

Where
 

Necrodeath - "Process of Violation" Guitar Tab

Plain Text Version
More Necrodeath Tabs

Hits: 2636
Rated: 5.00 out of 5 (2 votes)
Updated: 2005-10-12 06:15:10

 

By:

Ema

sendpm.gif

email.gif

Important note
This tab is available online because we obtained explicit permission from Necrodeath or their label.


#----------------------------------PLEASE NOTE---------------------------------#
#This file is the author's own work and represents their interpretation of the #
#song. You may only use this file for private study, scholarship, or research. #
#Unless specified otherwise, this is NOT an official tab from the band members.#
#------------------------------------------------------------------------------#

  Visit MetalTabs.com for more metal tablature
  
PROCESS OF VIOLATION
 By NECRODEATH
 As Performed On BLACK AS A PITCH 2001

 Tabbed By Ema

 Tuning D


 RIFF 1 INTRO x1

|GUITAR 1
|-------------------------|-------------------------|
|-------------------------|-------------------------|
|-------------------------|--------------------7----|
|-9-9-9----9-9-9-9---9^---|-9-9-9----9-9-9-9-9-7----|
|-7-7-8p7--8-7-7-7-8------|-7-7-8p7--8-7-7-7-8-5----|
|-0-0-0----0-0-0-0--------|-0-0-0----0-0-0-0-0-5----|
|
|
|GUITAR 2
|-------------------------|-------------------------|
|-------------------------|-------------------------|
|-------------------------|--------------------7----|
|-9-----------------------|-(9)----------------7----|
|-7-----------------------|-(7)----------------5----|
|-0-----------------------|-(0)----------------5----|


|GUITAR 1
|-------------------------|-------------------------|
|-------------------------|-------------------------|
|-------------------------|--------------------7----|
|-9-9-9----9-9-9-9---9^---|-9-9-9----9-9-9-9-9-7----|
|-7-7-8p7--8-7-7-7-8------|-7-7-8p7--8-7-7-7-8-5----|
|-0-0-0----0-0-0-0--------|-0-0-0----0-0-0-0-0-5----|
|
|
|GUITAR 2
|-------------------------|-------------------------|
|-------------------------|-------------------------|
|-(7)---------------------|-------------------------|
|-(7)---------------------|-------------------------|
|-(5)---------------------|-------------------------|
|-(5)---------------------|-------------------------|




 RIFF 1A VERSE x4

|-------------------------|-------------------------|
|-------------------------|-------------------------|
|-------------------------|--------------------7----|
|--------------------9^---|--------------------7----|
|-7-7-8p7--8-7-7-7-8------|-7-7-8p7--8-7-7-7-8-5----|
|-0-0-0----0-0-0-0--------|-0-0-0----0-0-0-0-0-5----|




 FILL 1

|---------------------|
|---------------------|
|---------------------|
|-9---7-8-910---------|
|-7---5-6-7-8---------|
|-7---5-6-7-8---------|




 RIFF 1A VERSE x4


 RIFF 2 BRIDGE x2

|---------------------|---------------------|
|---------------------|---------------------|
|---------------------|---------------------|
|-9--------10---------|-9--------10----7----|
|-7---------8---------|-7---------8----5----|
|-7---------8---------|-7---------8----5----|




 RIFF 1A VERSE x4

 RIFF 2 BRIDGE x2


 RIFF 2A CHORUS x2

|GUITAR 1
|---------------------|---------------------|
|---------------------|---------------------|
|---------------------|---------------------|
|-9--------10---------|-9---------7---------|
|-7---------8---------|-7---------5---------|
|-7---------8---------|-7---------5---------|
|
|
|GUITAR 2
|      N.H.       N.H.        N.H.      N.H.
|------5----------5---|-------5---------5---|
|--------5----------5-|---------5---------5-|
|---------------------|---------------------|
|-9--------10---------|-9---------7---------|
|-7---------8---------|-7---------5---------|
|-7---------8---------|-7---------5---------|




 RIFF 3 INTERLUDE

|--------------------------------|--------------------------------|
|--------------------------------|--------------------------------|
|--------------------------------|-9------------------------------|
|-2------------------------------|-9------------------------------|
|-2------------------------------|-7------------------------------|
|-0------------------------------|-7------------------------------|



|GUITAR 1               N.H._        N.H.         N.H.    N.H.
|--------------------------------|--------------------------------|
|--------------------------------|--------------------------------|
|--------------------------------|--------------------------------|
|--------------------------5^^^^-|-7/9^^^^------------------------|
|-7b^^^^---------5b^^^^p5^^^^^^^-|--------------------------------|
|--------------------------------|----------------7^^^^--12^^^^---|
|
|
|GUITAR 2
|--------------------------------|--------------------------------|
|--------------------------------|--------------------------------|
|--------------------------------|--------------------------------|
|--------------------------------|--------------------------------|
|-2------------------------------|--------------------------------|
|-0------------------------------|--------------------------------|
   x



 SOLO

|------------12----10----12----10---------------12----10----12----10----|
|------------12----11----12----11---------------12----11----12----11----|
|-/9b^^^^-------12----12----12----12-/9b^^^^-------12----12----12----12-|
|-----------------------------------------------------------------------|
|-----------------------------------------------------------------------|
|-----------------------------------------------------------------------|


|OVER BRIDGE
| N.H. BAR
|------------|
|------------|
|------------|
|------------|
|-7//////----|
|------------|




 BASS RIFF UNDER SOLO


 RIFF 2 BRIDGE x2

 RIFF 2A CHORUS x2


 FILL 2 END
                                   N.H.             BAR
|--------------------------------|--------------------------------|
|--------------------------------|-5-------------(5)/////////////-|
|--------------------------------|-5-------------(5)/////////////-|
|--------------------------------|--------------------------------|
|-2------------------------------|--------------------------------|
|-0------------------------------|--------------------------------|

  Visit MetalTabs.com for more metal tablature

bottom separator

Contact Us | Privacy Policy | Disclaimer | Legal Notice
Copyright © 2001-2014 MetalTabs.com. All Rights Reserved.