top separator

Home

Forum

What's New

Submit a Tab

FAQ

Links

Contact Us

Link to Us

MuSpy.com

MetalTabs.com logo

Bands

0-9

A

B

C

D

E

F

G

H

I

J

K

L

M

N

O

P

Q

R

S

T

U

V

W

X

Y

Z

Search

What

Where
 

Necrodeath - "Red as Blood" Guitar Tab

Plain Text Version
More Necrodeath Tabs

Hits: 2600
Rated: 5.00 out of 5 (1 vote)
Updated: 2005-10-12 06:14:47

 

By:

Ema

sendpm.gif

email.gif

Important note
This tab is available online because we obtained explicit permission from Necrodeath or their label.


#----------------------------------PLEASE NOTE---------------------------------#
#This file is the author's own work and represents their interpretation of the #
#song. You may only use this file for private study, scholarship, or research. #
#Unless specified otherwise, this is NOT an official tab from the band members.#
#------------------------------------------------------------------------------#

  Visit MetalTabs.com for more metal tablature
  
RED AS BLOOD
 By NECRODEATH
 As Performed On BLACK AS A PITCH 2001

 Tabbed By Ema

 Tuning D


 RIFF 1 INTRO x4

|--------------------------------|
|--------------------------------|
|--------------------------------|
|-999999101010101010101010101010-|
|-777777-8-8-8-8-8-8-8-8-8-8-8-8-|
|-000000-0-0-0-0-0-0-8-8-8-8-8-8-|




 RIFF 2 INTRO x4

|GUITAR 1
|----------------------------------------------------|
|----------------------------------------------------|
|----------------------------------------------------|
|--------------------------------6---666---5---555---|
|---------7-8^-----------7-8-----4---444---3---333---|
|-0-0-0-0--------0-0-0-0-----7-8-4---444---3---333---|
| . . . .        . . . .
|
|GUITAR 2
|----------------------------------------------------|
|----------------------------------------------------|
|----------------------------------------------------|
|---------910^-------------------6---666---5---555---|
|------------------------7-8-----4---444---3---333---|
|-0-0-0-0--------0-0-0-0-----7-8-4---444---3---333---|
  . . . .        . . . .



 RIFF 3A INTO VERSE x1

|GUITAR 1
|-------------------------|---------------------------------|
|-------------------------|---------------------------------|
|-------------------------|---------------------------------|
|-------------------7-----|-----------------9-8-----7---7^--|
|-7-------7-------8---8^--|-7-------7-----------9-8---8-----|
|-0-0-0-0-0-0-0-0---------|-0-0-0-0-0-0-0-0-----------------|
|   . . .   . . .             . . .   . . .
|
|GUITAR 2
|-------------------------|---------------------------------|
|-------------------------|---------------------------------|
|-------------------------|---------------------------------|
|-------------------------|---------------------------------|
|-2-----------------------|---------------------------------|
|-0-----------------------|---------------------------------|
   x


|GUITAR 1
|-------------------------|---------------------------------|
|-------------------------|---------------------------------|
|-------------------------|---------------------------------|
|-------------------7-----|-----------------9-8-----7---7^--|
|-7-------7-------8---8^--|-7-------7-----------9-8---8-----|
|-0-0-0-0-0-0-0-0---------|-0-0-0-0-0-0-0-0-----------------|
|   . . .   . . .             . . .   . . .
|
|GUITAR 2
|-------------------------|---------------------------------|
|-------------------------|---------------------------------|
|-------------------------|---------------------------------|
|-------------------------|---------------------------------|
|-2-2-----2---------------|-2-2-----2-----------------------|
|-0-0-----0---------------|-0-0-----0-----------------------|
     x     x                   x     x



 RIFF 3 VERSE x4

|-------------------------|---------------------------------|
|-------------------------|---------------------------------|
|-------------------------|---------------------------------|
|-------------------7-----|-----------------9-8-----7---7^--|
|-7-------7-------8---8^--|-7-------7-----------9-8---8-----|
|-0-0-0-0-0-0-0-0---------|-0-0-0-0-0-0-0-0-----------------|
    . . .   . . .             . . .   . . .



 RIFF 4 BRIDGE x1

|GUITAR 1
|-----------------|-----------------------------|
|-----------------|-----------------------------|
|-----------------|-----------------------------|
|-----------------|-----------------------------|
|-5-------6---3---|---------7-8^----------7-8---|
|-3-------4---1---|-0-0-0-0-------0-0-0-0-5-6---|
|                   . . . .       . . . .
|
|GUITAR 2
|-----------------|-----------------------------|
|-----------------|-----------------------------|
|-----------------|-----------------------------|
|-----------------|---------910^----------------|
|-5-------6---3---|-----------------------7-8---|
|-3-------4---1---|-0-0-0-0-------0-0-0-0---6---|
                    . . . .       . . . .



 RIFF 5 CHORUS x2

|GUITAR 1
|-----------------|-------------------------------|
|-----------------|-------------------------------|
|-----------------|-------------------------------|
|-----------------|-------------------------------|
|-5-------6---3---|---------7-8^----------7-8-----|
|-3-------4---1---|-0-0-0-0-------0-0-0-0-----7-8-|
|                   . . . .       . . . .
|
|GUITAR 2
|-----------------|-------------------------------|
|-----------------|-------------------------------|
|-----------------|-------------------------------|
|-----------------|---------910^------------------|
|-5-------6---3---|-----------------------7-8-----|
|-3-------4---1---|-0-0-0-0-------0-0-0-0-----7-8-|
                    . . . .       . . . .


|BOTH
|-----------------------------------------|
|-----------------------------------------|
|-----------------------------------------|
|-6---6-6---5---5-5--10--1010---7---7-7---|
|-4---4-4---3---3-3---8---8-8---5---5-5---|
|-4---4-4---3---3-3---8---8-8---5---5-5---|




 RIFF 3 VERSE x2

 RIFF 3 VERSE x4 MID TEMPO

 RIFF 4 BRIDGE x1

 RIFF 5 CHORUS x4


 RIFF 6A BREAK x1

|GUITAR 1
|---------------------|---------------------|
|---------------------|---------------------|
|---------------------|---------------------|
|---------------------|---------------------|
|--------3--------7h8-|--------3------6-----|
|-000000-1-000000-----|-000000-1-0000-4-----|
| ......   ......       ......   ....
|
|GUITAR 2
|---------------------|---------------------|
|---------------------|---------------------|
|---------------------|---------------------|
|---------------------|---------------------|
|-2-------------------|---------------6-----|
|-0-------------------|---------------4-----|



|GUITAR 1
|---------------------|---------------------|
|---------------------|---------------------|
|---------------------|---------------------|
|---------------------|---------------------|
|--------3--------7h8-|--------3------7--6--|
|-000000-1-000000-----|-000000-1-0000-5--4--|
| ......   ......       ......   ....
|
|GUITAR 2
| N.H.
|---------------------|---------------------|
|-5^^^^^^^^^^^^^^^^^^-|-(5)^^^^^^^^^^^^-----|
|---------------------|---------------------|
|---------------------|---------------------|
|---------------------|---------------------|
|---------------------|---------------------|



 RIFF 6 VERSE x2

|---------------------|---------------------|
|---------------------|---------------------|
|---------------------|---------------------|
|---------------------|---------------------|
|--------3--------7h8-|--------3------6--6--|
|-000000-1-000000-----|-000000-1-0000-4--4--|
  ......   ......       ......   ....


|---------------------|---------------------|
|---------------------|---------------------|
|---------------------|---------------------|
|---------------------|---------------------|
|--------3--------7h8-|--------3------7--6--|
|-000000-1-000000-----|-000000-1-0000-5--4--|
  ......   ......       ......   ....



 RIFF 4 BRIDGE x1


 SOLO

|----------------------------------------------------------------------|
|----------------------------------------------------------------------|
|-------------------17b^^^---16b^^^---9-10-12-10-9--------9-10-12-10-9-|
|-14b^^^---15b^^^----------------------------------11-9-8--------------|
|----------------------------------------------------------------------|
|----------------------------------------------------------------------|


|-------------------------------------------------------------------------|
|-------------------------------------------------------------------------|
|--------12-10-9--------12-10-9--------9h12-10h13-11h14-12h15-13h16-14h17-|
|-11-9-8---------11-9-8---------11-9-8------------------------------------|
|-------------------------------------------------------------------------|
|-------------------------------------------------------------------------|


|-------------------------------------|
|----------------------20b///\/\\\----|
|-15h18-16h19-17h20-18/19b///\/\\\----|
|-------------------------------------|
|-------------------------------------|
|-------------------------------------|




 RIFF 6 x1 UNDER SOLO


 RIFF 6 VERSE x2


 RIFF 4 BRIDGE x1

 RIFF 5 CHORUS x4


 RIFF 3B END x1

|GUITAR 1
|-------------------------|---------------------------------|
|-------------------------|---------------------------------|
|-------------------------|---------------------------------|
|-------------------7-----|-----------------9-8-----7---7^--|
|-7-------7-----7-8---8^--|-7-------7-----------9-8---8-----|
|-0-0-0-0-0-0-0-----------|-0-0-0-0-0-0-0-0-----------------|
|   . . .   . .               . . .   . . .
|
|GUITAR 2
|-------------------------|---------------------------------|
|-------------------------|---------------------------------|
|-------------------------|---------------------------------|
|-------------------------|-----------------9-8-----7---7^--|
|-2-----------------------|-2-2-----2-----------9-8---8-----|
|-0-----------------------|-0-0-----0-----------------------|
   x                           x     x

  Visit MetalTabs.com for more metal tablature

bottom separator

Contact Us | Privacy Policy | Disclaimer | Legal Notice
Copyright © 2001-2014 MetalTabs.com. All Rights Reserved.