top separator

Home

Forum

What's New

Submit a Tab

FAQ

Links

Contact Us

Link to Us

MetalTabs.com logo

Bands

0-9

A

B

C

D

E

F

G

H

I

J

K

L

M

N

O

P

Q

R

S

T

U

V

W

X

Y

Z

Search

What

Where
 

Necrodeath - "Hate and Scorn" Guitar Tab

Plain Text Version
More Necrodeath Tabs

Hits: 2841
Rated: 5.00 out of 5 (1 vote)
Updated: 2005-10-12 06:14:37

 

By:

Ema

sendpm.gif

email.gif

Important note
This tab is available online because we obtained explicit permission from Necrodeath or their label.


#----------------------------------PLEASE NOTE---------------------------------#
#This file is the author's own work and represents their interpretation of the #
#song. You may only use this file for private study, scholarship, or research. #
#Unless specified otherwise, this is NOT an official tab from the band members.#
#------------------------------------------------------------------------------#

  Visit MetalTabs.com for more metal tablature
  
HATE AND SCORN
 By NECRODEATH
 As Performed On MATER OF ALL EVIL 1999

 Tabbed By Ema

 Tuning Eb


 RIFF 1 INTRO x8

|---------|
|---------|
|---------|
|---------|
|-2-3-4-5-|
|-0-1-2-3-|




 RIFF 2 BREAK x1

|GUITAR 1
|-------------------------|-------------------------|
|-------------------------|-------------------------|
|-------------------------|-------------------------|
|-------------------------|-------------------------|
|-6-----6-----7-----4-----|-6-----6-----7-----4-----|
|-4-444-4-444-5-555-2-222-|-4-444-4-444-5-555-2-222-|
| . ... . ... . ... . ...   . ... . ... . ... . ...
|
|GUITAR 2
|-------------------------|-------------------------|
|-------------------------|-------------------------|
|-------------------------|-------------------------|
|-------------------------|-------------------------|
|-6-----------------------|-x\\\\\\\\\\\\\\\\\\\\\\-|
|-4-----------------------|-------------------------|
   x



 RIFF 1 INTRO x4


 RIFF 3A INTO VERSE x1

|GUITAR 1
|-----------------------------------------|
|-----------------------------------------|
|-----------------------------------------|
|--------------5-----5-----4-----3-2-3^---|
|----------4-5-3-----3-----2--------------|
|-00000000-2-3---0-0---0-0---0-0----------|
| ........       . .   . .   . .
|
|GUITAR 2
|-----------------------------------------|
|-----------------------------------------|
|-----------------------------------------|
|--------------5-----5-----4-----3-2-3^---|
|-2--------4-5-3-----3-----2--------------|
|-0--------2-3----------------------------|
   x            x     x     x



 RIFF 3 VERSE x3

|-----------------------------------------|
|-----------------------------------------|
|-----------------------------------------|
|--------------5-----5-----4-----3-2-3^---|
|----------4-5-3-----3-----2--------------|
|-00000000-2-3---0-0---0-0---0-0----------|
  ........       . .   . .   . .



 RIFF 4 BRIDGE x2

|-------------------------|-------------------------|
|-------------------------|-------------------------|
|-------------------------|-------------------------|
|-2---------4---3---------|-2---------4-------------|
|-2---------2-5-1---------|-2---------2-5-4----3----|
|-0-----------3-----------|-0-----------3-2----1----|



 RIFF 1 CHORUS x4

 RIFF 3A INTO VERSE x1

 RIFF 3 VERSE x3

 RIFF 4 BRIDGE x2

 RIFF 1 CHORUS


 RIFF 5A INTO INTERLUDE x1

|GUITAR 1
|-------------------------|-------------------------|
|-------------------------|-------------------------|
|-------------------------|-------------------------|
|-------------------------|-----------------4-4-3---|
|-2-----3-2-------5---4---|-2-----3-2-------2-2-1---|
|-0-0-0-1-0-0-0-0-3---2---|-0-0-0-1-0-0-0-0---------|
|   . .     . . .           . .     . . .
|
|GUITAR 2
|-------------------------|-------------------------|
|-------------------------|-------------------------|
|-------------------------|-------------------------|
|-------------------------|-----------------4-4-3---|
|-2---------------5---4---|-2---------------2-2-1---|
|-0---------------3---2---|-0-----------------------|
   x                         x


|GUITAR 1
|-------------------------|-------------------------|
|-------------------------|-------------------------|
|-------------------------|-------------------------|
|-------------------------|-----------------4-4-3---|
|-2-----3-2-------5---4---|-2-----3-2-------2-2-1---|
|-0-0-0-1-0-0-0-0-3---2---|-0-0-0-1-0-0-0-0---------|
|   . .     . . .           . .     . . .
|
|GUITAR 2
|-------------------------|-------------------------|
|-------------------------|-------------------------|
|-------------------------|-------------------------|
|-------------------------|-----------------4-4-3---|
|-2---------------5---4---|-2---------------2-2-1---|
|-0---------------3---2---|-0-----------------------|
   x



 RIFF 5 INTERLUDE x4

|-------------------------|-------------------------|
|-------------------------|-------------------------|
|-------------------------|-------------------------|
|-------------------------|-----------------4-4-3---|
|-2-----3-2-------5---4---|-2-----3-2-------2-2-1---|
|-0-0-0-1-0-0-0-0-3---2---|-0-0-0-1-0-0-0-0---------|
    . .     . . .           . .     . . .



 RIFF 4A BRIDGE x2

|-----0-------------------|-----0-------------------|
|-----0-------------------|-----0-------------------|
|-------------------------|-------------------------|
|-2-------------3---------|-2-----------------------|
|-2---------2---1---------|-2---------2---4----3----|
|-0-----------3-----------|-0-----------3-2----1----|



 RIFF 5 INTERLUDE x2

 RIFF 5 INTERLUDE x4 MID TEMPO

 RIFF 4A BRIDGE x2

 RIFF 1 CHORUS x4


 FILL 1 END

|-----|
|-----|
|-----|
|-----|
|-2---|
|-0---|
   x

  Visit MetalTabs.com for more metal tablature

bottom separator

Contact Us | Privacy Policy | Disclaimer | Legal Notice
Copyright © 2001-2014 MetalTabs.com. All Rights Reserved.