top separator

Home

Forum

What's New

Submit a Tab

FAQ

Links

Contact Us

Link to Us

MetalTabs.com logo

Bands

0-9

A

B

C

D

E

F

G

H

I

J

K

L

M

N

O

P

Q

R

S

T

U

V

W

X

Y

Z

Search

What

Where
 

Necrodeath - "Flame of Malignance" Guitar Tab

Plain Text Version
More Necrodeath Tabs

Hits: 2740
Rated: 5.00 out of 5 (1 vote)
Updated: 2005-10-12 06:14:30

 

By:

Ema

sendpm.gif

email.gif

Important note
This tab is available online because we obtained explicit permission from Necrodeath or their label.


#----------------------------------PLEASE NOTE---------------------------------#
#This file is the author's own work and represents their interpretation of the #
#song. You may only use this file for private study, scholarship, or research. #
#Unless specified otherwise, this is NOT an official tab from the band members.#
#------------------------------------------------------------------------------#

  Visit MetalTabs.com for more metal tablature
  
FLAME OF MALIGNANCE
 By NECRODEATH
 As Performed On MATER OF ALL EVIL 1999

 Tabbed By Ema

 Tuning Eb


 RIFF 1 INTRO x1

|-------------|
|-------------|
|-------------|
|-4-----------|
|-2-5-3-------|
|---3-1-------|




 RIFF 2 VERSE x4
               TRILL TRILL                TRILL
|--------------------------|--------------------------|
|--------------------------|--------------------------|
|--------------------------|--------------------------|
|--------------------7h8p7-|--------------------------|
|-2------------7h8p7-------|-2------------7h8p7-8--7--|
|-000000000000-------------|-000000000000-------6--5--|
  ............               ............



 RIFF 3 BRIDGE x4

|--------------------------|
|--------------------------|
|--------------------------|
|--------------------------|
|-4------------------------|
|-222222222222333222777555-|
  ........................



 RIFF 2 VERSE x4

 RIFF 3 BRIDGE x4


 RIFF 4 CHORUS x4

|-----0-----------0-----------0---------------|
|---------0-----------0-----------0-----------|
|---------------------------------------------|
|-9-----------8-----------2-----------7--8-10-|
|-7-----------8-----------2-----------5--6--8-|
|-7-----------6-----------0-------------------|




 RIFF 2 VERSE x1


 RIFF 2A INTO VERSE x1

               TRILL TRILL
|--------------------------|--------------------------|
|--------------------------|--------------------------|
|--------------------------|--------------------------|
|--------------------7h8p7-|--------------------------|
|-2------------7h8p7-------|-2------------2-----2-2---|
|-000000000000-------------|-000000000000-0-----0-0---|
  ............               ............  x       x



 RIFF 2 VERSE x4

 RIFF 3 BRIDGE x4

 RIFF 4 CHORUS x4


 RIFF 5A INTO INTERLUDE x1

|GUITAR 1         TRILL   TRILL
|-------------------------------|-------------------------------|
|-------------------------------|-------------------------------|
|-------------------------------|-------------------------------|
|-----------------7h8p7---4h5p4-|-----------------7h8p7-7--9-10-|
|-2-------2---------------------|-2-------2-------------5--7--8-|
|-0-0-0-0-0-0-0-0---------------|-0-0-0-0-0-0-0-0---------------|
|   . . .   . . .                   . . .   . . .
|
|GUITAR 2
|-------------------------------|-------------------------------|
|-------------------------------|-------------------------------|
|-------------------------------|-------------------------------|
|-2-----------------------------|-2---------------7-----7--9-10-|
|-2-----------------------------|-2---------------7-----5--7--8-|
|-0-----------------------------|-0---------------5-------------|



|GUITAR 1         TRILL   TRILL
|-------------------------------|-------------------------------|
|-------------------------------|-------------------------------|
|-------------------------------|-------------------------------|
|-----------------7h8p7---4h5p4-|-----------------7h8p7-7--9-10-|
|-2-------2---------------------|-2-------2-------------5--7--8-|
|-0-0-0-0-0-0-0-0---------------|-0-0-0-0-0-0-0-0---------------|
|   . . .   . . .                   . . .   . . .
|
|GUITAR 2
|-------------------------------|-------------------------------|
|-------------------------------|-------------------------------|
|-------------------------------|-------------------------------|
|-------------------------------|-----------------7-----7--9-10-|
|-2-----------------------------|-2-------2-------7-----5--7--8-|
|-0-----------------------------|-0-------0-------5-------------|
   x                               x       x



 RIFF 5 INTERLUDE x2

|-------------------------------|-------------------------------|
|-------------------------------|-------------------------------|
|-------------------------------|-------------------------------|
|-----------------7h8p7---4h5p4-|-----------------7h8p7-7--9-10-|
|-2-------2---------------------|-2-------2-------------5--7--8-|
|-0-0-0-0-0-0-0-0---------------|-0-0-0-0-0-0-0-0---------------|
    . . .   . . .                   . . .   . . .



 RIFF 2 VERSE x4

 RIFF 3 BRIDGE x4

 RIFF 4 CHORUS x4

  Visit MetalTabs.com for more metal tablature

bottom separator

Contact Us | Privacy Policy | Disclaimer | Legal Notice
Copyright © 2001-2014 MetalTabs.com. All Rights Reserved.