top separator

Home

Forum

What's New

Submit a Tab

FAQ

Links

Contact Us

Link to Us

MuSpy.com

MetalTabs.com logo

Bands

0-9

A

B

C

D

E

F

G

H

I

J

K

L

M

N

O

P

Q

R

S

T

U

V

W

X

Y

Z

Search

What

Where
 

As I Lay Dying - "Collision" Guitar Tab

Plain Text Version
More As I Lay Dying Tabs

Hits: 6752
Rated: 5.00 out of 5 (3 votes)
Updated: 2005-10-04 22:15:56

 

By:

sendpm.gif

email.gif

Important note
This tab is available online because we obtained explicit permission from As I Lay Dying or their label.


#----------------------------------PLEASE NOTE---------------------------------#
#This file is the author's own work and represents their interpretation of the #
#song. You may only use this file for private study, scholarship, or research. #
#Unless specified otherwise, this is NOT an official tab from the band members.#
#------------------------------------------------------------------------------#

  Visit MetalTabs.com for more metal tablature
  
Band:  As I Lay Dying
Album: Frail Words Collapse
Song:  Collision

Copyright (c)  Metalblade records 2003
Version 1.0 - september 28, 2005

Transcribed By: TonY
Email:          tony_apm@hotmail.com


Tuning C G C F A D (drop C)

Riff1
--------------------------------------------------------------
--------------------------------------------------------------
------------------------------------------------------10-8----
-0--------------------------------------10-8-7-7h8p7-------10-
-0-7h8p7-10-8-7-8--7h8p7-10-8-7---7h8p7-----------------------
-0-----------------------------8------------------------------
                               ~
Riff2
-----------------------------------------------------------
-----------------------------------------------------------
-----------------------------------------------------------
--------------------5h7p5----------------------------------
-------8-7-5-5-----------8p7-------8-7-5-5-----------------
-0-0-0---------8-00----------0-0-0---------8-8-8----000000-

Riff3                      Cont'd
--------------------------|---------------------------
--------------------------|---------------------------
--------------------------|---------------------------
--------------------------|----5-7---------5h7----5h7-
----7-8-5------7h8----7h8-|----------8----------------
-00-------8--00-----00----|-00---------8-00-----00----

Riff4
--------------------------------------------
--------------------------------------------
--------------------------------------------
--------------------------------------------
----8-7-------7h8----7h8-----8-7---10-8-7-8-
-00-----8--00-----00------00-----8----------

Riff5
-------------------------
-------------------------
----14----12----15----14-
----xx----xx----xx----xx-
----12----10----13----12-
-00----00----00----00----

Riff6
--------------------------------------------------------
--------------------------------------------------------
--------------------------------------------------------
----------------------------------5-7--------5h7----5h7-
----7-8-7-5------7h8----7h8-----------8-----------------
-00--------h8--00-----00--------00-----h8--00-----00----

End
---------------
---------------
---------------
---------------
---------------
-0-0-0---0-000-


It's my firt tab ever !! so don't be too crual with me plz
Listen to the song to figure order and repetitions
That's it. Have Fun.

  Visit MetalTabs.com for more metal tablature

bottom separator

Contact Us | Privacy Policy | Disclaimer | Legal Notice
Copyright © 2001-2014 MetalTabs.com. All Rights Reserved.