top separator

Home

Forum

What's New

Submit a Tab

FAQ

Links

Contact Us

Link to Us

MuSpy.com

MetalTabs.com logo

Bands

0-9

A

B

C

D

E

F

G

H

I

J

K

L

M

N

O

P

Q

R

S

T

U

V

W

X

Y

Z

Search

What

Where
 

Mourning Beloveth - "The Mountains Are Mine" Bass Tab

Plain Text Version
More Mourning Beloveth Tabs

Hits: 2461
Rated: 5.00 out of 5 (4 votes)
Updated: 2006-11-07 06:27:08

 

By:

Paddy

sendpm.gif

email.gif

Important note
This tab is available online because we obtained explicit permission from Mourning Beloveth or their label.


#----------------------------------PLEASE NOTE---------------------------------#
#This file is the author's own work and represents their interpretation of the #
#song. You may only use this file for private study, scholarship, or research. #
#Unless specified otherwise, this is NOT an official tab from the band members.#
#------------------------------------------------------------------------------#

  Visit MetalTabs.com for more metal tablature
  
================================================================================
                       M O U R N I N G   B E L O V E T H

                                       -

                  T H E   M O U N T A I N S   A R E   M I N E
================================================================================


                                      DUST
                           (c) Sentinel Records - 2000
                        http://www.mourningbeloveth.com/


                              Tune Down 1 & 1/2 Steps
                                    C# F# B E

                                  Tempo = 60 BPM
                               Time Signature = 4/4



                          -----------------------------
                                 Transcribed by

                                 PADDY MCMULLAN
                           stinkypoohpants@yahoo.co.uk

                                   Version 1.0
                             -----------------------

                             Tablature Symbols Used:


 p         -  Pull-Off
 h         -  Hammer-On
 (/)       -  Legato Slide (Blank space indicates length of slide)
 \         -  Slide Down to/Down From (Blank space indicates length of slide)
 /         -  Slide Up To/Up From (Blank space indicates length of slide)
 ( )       -  Ghost Note/Tied Note/Implied Note
 REST      -  Rest and sustain rest for duration of blank space
 |_3_|     -  Triplet notes



================================================================================
Rest for 1 bar (the tempo of this one and only bar is 40 BPM)
================================================================================

================================================================================
Riff 1: Play 4 times [Tempo = 60 BPM]
================================================================================


||-------------------|----------------------|-------------------|
||-------------------|----------------------|-------------------|
||-------------------|----------------------|-------------------|
||--0----------------|--(0)------------0----|--3----------------|

                                                           *
|----------------------|-------------------|------------------------|
|----------------------|-------------------|------------------------|
|----------------------|-------------------|------------------------|
|--(3)------------3----|--2----------------|--(2)----------2--2--2--|


|----------------------|-------------------------| |
|----------------------|-------------------------|*|
|-------------0--2--3--|--(3)--2-------5---------|*|
|--0-------------------|------------3-------1----| |



* At the last 3 notes of this bar the tempo becomes 70 BPM



================================================================================
Riff 2: Play twice
================================================================================


                                               |_3_|
||-----------------------|---------------------------|
||-----------------------|---------------------------|
||--0------0-0-3----2----|------------------3--2h3p2-|
||-----------------------|--3------0--1--3-----------|


|-----------------------|--------------------|-----------------------|
|-----------------------|--------------------|-----------------------|
|--0------0-0-3----2----|--3--------5--------|--0------0-0-3----2----|
|-----------------------|--------------------|-----------------------|

                      |_3_|
|---------------------------|-----------------------|
|---------------------------|-----------------------|
|------------------3--2h3p2-|--0------0-0-3----2----|
|--3------0--1--3-----------|-----------------------|


|--------------------| |
|--------------------|*|
|--3-----------------|*|
|-----------3--------| |



================================================================================
Riff 3: Play once
================================================================================


||-------------------|-------------------|
||-------------------|-------------------|
||-------------------|-------------------|
||--0----------------|--0----------------|


|---------------------------|------------------------------|
|---------------------------|------------------------------|
|------5-5h7-7----2-3--2----|------5-5h7-7---2-3-2-5-3-2---|
|--0----------------------3-|--0-------------------------3-|


|---------------------------|----------------------------|
|---------------------------|----------------------------|
|------5-5h7-7----2-3--2----|------5-5h7-7---3-2---0-2---|
|--0----------------------3-|--0-----------------3-------|


|---------------------------|------------------------------||
|---------------------------|------------------------------||
|------5-5h7-7----2-3--2----|------5-5h7-7---2-3-2-5-3-2---||
|--0----------------------3-|--0-------------------------3-||



================================================================================
Riff 4: Play 4 times [Tempo = 75 BPM]
================================================================================


||----------------------|----------------------|
||----------------------|------------2---------|
||----------------------|-----------------2----|
||--0------0--0------0--|--0------0------------|


|--------------------|----------------------|----------------------|
|--------------------|----------------------|----------------------|
|--3--------------2--|--3--5----------------|----------------------|
|--------------------|------------1----3----|--0------0--0------0--|


|----------------------|-----------------------|----------------------| |
|------------2---------|-----------------------|----------------------|*|
|-----------------2----|--3----------5--3--2-3-|--2-------------------|*|
|--0------0------------|-----------------------|---------0--1----3----| |



================================================================================
Play riff 3 once [Tempo = 70 BPM]
================================================================================

================================================================================
Riff 5: Play once
================================================================================


| |--------------------------------------|
|6|--------------------------------------|
|/|--5--5--5--5---5-5--3--3--3--3---3-3--|
|4|--------------------------------------|


|--------------------------------------|
|--------------------------------------|
|--7--7--7--7---7-7--5--5--5--5---5-5--|
|--------------------------------------|


|-----------------------------------------|
|-----------------------------------------|
|--3---3-3-3-3---3-3-3-3---3-3-3-0--4--5--|
|-----------------------------------------|


|--------------------------------------|
|--------------------------------------|
|--5--5--5--5---5-5--3--3--3--3---3-3--|
|--------------------------------------|


|--------------------------------------|
|--------------------------------------|
|--7--7--7--7---7-7--5--5--5--5---5-5--|
|--------------------------------------|


|-----------------------------------------||
|-----------------------------------------||
|--3---3-3-3-3---3-3-3-3---3-3-3-0--4--5--||
|-----------------------------------------||



================================================================================
Riff 6: Play 5 times
================================================================================


||---------------------------------------|
||------------------------------7--5--4--|
||--7----7-7-7--9--7--5---5-5-5----------|
||---------------------------------------|


|---------------------------------------------| |
|---------------------------------------------|*|
|--3---3-3-3-3---3-3-3-3-2--2-2-3-------------|*|
|---------------------------------3-2-2-2-2-3-| |



================================================================================
Play riff 5 twice
================================================================================

================================================================================
Play riff 2 twice
================================================================================

================================================================================
Riff 7: Play according to the repeats outlined below
================================================================================


-------
Part 1:
-------

||---------------------|---------------------|---------------------|
||---------------------|---------------------|---------------------|
||--0--------0------0--|--0--------0------0--|--0--------0------0--|
||---------------------|---------------------|---------------------|


|------------------------||
|------------------------||
|--0----2----3----5--2h3-|| X 1
|------------------------||


-------
Part 2:
-------

||------------------------|-----------------------------|
||------------------------|-----------------------------|
||--0----0-2-3----2-------|--0----0-2-3--2---3p2----0-2-|
||-------------------3----|----------------------3------|

                          *
|------------------------|------------------------| |
|------------------------|------------------------|*|
|--0----0-2-3----2-------|--0----2----3----5--2h3-|*| X 4
|-------------------3----|------------------------| |



* During the last play of this bar the tempo gradually decreases to 60 BPM



After you've repeated this riff 4 times, end the song on the following:



   |__3__|
|------------R-        -||
|------------E-        -||
|------------S-        -||
|--5--5--5\--T-        -||



================================================================================
End
================================================================================


Tab summary:        Riff 1 x 4
                    Riff 2 x 2
                    Riff 3 x 1
                    Riff 4 x 4
                    Riff 3 x 1
                    Riff 5 x 1
                    Riff 6 x 5
                    Riff 5 x 2
                    Riff 2 x 2
                    Riff 7:
                           Part 1 x 1
                           Part 2 x 4

                    END

  Visit MetalTabs.com for more metal tablature

bottom separator

Contact Us | Privacy Policy | Disclaimer | Legal Notice
Copyright © 2001-2014 MetalTabs.com. All Rights Reserved.