top separator

Home

Forum

What's New

Submit a Tab

FAQ

Links

Contact Us

Link to Us

MetalTabs.com logo

Bands

0-9

A

B

C

D

E

F

G

H

I

J

K

L

M

N

O

P

Q

R

S

T

U

V

W

X

Y

Z

Search

What

Where
 

Mourning Beloveth - "The Mountains Are Mine" Guitar Tab

Plain Text Version
More Mourning Beloveth Tabs

Hits: 3432
Rated: 5.00 out of 5 (4 votes)
Updated: 2007-04-02 06:00:31

 

By:

Paddy

sendpm.gif

email.gif

Important note
This tab is available online because we obtained explicit permission from Mourning Beloveth or their label.


#----------------------------------PLEASE NOTE---------------------------------#
#This file is the author's own work and represents their interpretation of the #
#song. You may only use this file for private study, scholarship, or research. #
#Unless specified otherwise, this is NOT an official tab from the band members.#
#------------------------------------------------------------------------------#

  Visit MetalTabs.com for more metal tablature
  
================================================================================
                       M O U R N I N G   B E L O V E T H

                                       -

                  T H E   M O U N T A I N S   A R E   M I N E
================================================================================


                                      DUST
                           (c) Sentinel Records - 2000
                        http://www.mourningbeloveth.com/


                              Tune Down 1 & 1/2 Steps
                                  C# F# B E G# C#

                                  Tempo = 60 BPM
                               Time Signature = 4/4



                          -----------------------------
                                 Transcribed by

                                 PADDY MCMULLAN
                           stinkypoohpants@yahoo.co.uk

                                   Version 1.2
                      (Corrections Outlined at Bottom of Tab)
                             -----------------------

                             Tablature Symbols Used:


 P.M...    -  Palm Mute
 p         -  Pull-Off
 h         -  Hammer-On
 (/)       -  Legato Slide (Blank space indicates length of slide)
 \         -  Slide Down to/Down From (Blank space indicates length of slide)
 /         -  Slide Up To/Up From (Blank space indicates length of slide)
 ( )       -  Ghost Note/Tied Note/Implied Note
 REST      -  Rest and sustain rest for duration of blank space
 |_3_|     -  Triplet notes



================================================================================
Rest for 1 bar (the tempo of this one and only bar is 40 BPM)
================================================================================

================================================================================
Riff 1: Guitars 1 & 2 with heavy distortion (Play once) [Tempo = 60 BPM]
================================================================================


  1                   2                      3
||-------------------|----------------------|-------------------|
||-------------------|----------------------|-------------------|
||-------------------|----------------------|-------------------|
||--2----------------|--(2)------------2----|--5----------------|
||--2----------------|--(2)------------2----|--5----------------|
||--0----------------|--(0)------------0----|--3----------------|

 4                      5                   6
|----------------------|-------------------|------------------------||
|----------------------|-------------------|------------------------||
|----------------------|-------------------|------------------------||
|--(5)------------5----|--4----------------|--(4)----------*--------||
|--(5)------------5----|--4----------------|--(4)----------4--4--4--||
|--(3)------------3----|--2----------------|--(2)----------2--2--2--||
                                                           P.M.....
* From here on, the tempo is 70 BPM

  7                      8                         9
||----------------------|-------------------------|-------------------|
||----------------------|-------------------------|-------------------|
||----------------------|-------------------------|-------------------|
||--2-------------------|-------------------------|--2----------------|
||--2----------0--2--3--|--(2)--2-------5----3----|--2----------------|
||--0-------------------|------------3-------1----|--0----------------|

 10                     11                   12
|----------------------|--------------------|-----------------------|
|----------------------|--------------------|-----------------------|
|----------------------|--------------------|-----------------------|
|--(2)------------2----|--5------------5----|-(5)--------------5----|
|--(2)------------2----|--5-----------(5)---|--5-----------5-5-5----|
|--(0)------------0----|--3-----------(3)---|-(3)--------------3----|
                                                           ....
 13                  14                       15
|-------------------|------------------------|----------------------|
|-------------------|------------------------|----------------------|
|-------------------|------------------------|----------------------|
|--4----------------|--(4)-------------------|--2-------------------|
|--4----------------|--(4)----------4--4--4--|--2----------0--2--3--|
|--2----------------|--(2)----------2--2--2--|--0-------------------|
                                    ........
 16                        17                  18
|-------------------------|-------------------|----------------------|
|-------------------------|-------------------|----------------------|
|-------------------------|-------------------|----------------------|
|-------------------------|--2----------------|--(2)------------2----|
|--(2)--2-------5----3----|--2----------------|--(2)------------2----|
|------------3-------1----|--0----------------|--(0)------------0----|

 19                  20                     21
|-------------------|----------------------|-------------------|
|-------------------|----------------------|-------------------|
|-------------------|----------------------|-------------------|
|--5----------------|--(5)------------5----|--4----------------|
|--5----------------|--(5)------------5----|--4----------------|
|--3----------------|--(3)------------3----|--2----------------|

 22                       23                     24
|------------------------|----------------------|-------------------------|
|------------------------|----------------------|-------------------------|
|------------------------|----------------------|-------------------------|
|--(4)-------------------|--2-------------------|-------------------------|
|--(4)----------4--4--4--|--2----------0--2--3--|--(2)--2-------5----3----|
|--(2)----------2--2--2--|--0-------------------|------------3-------1----|
                ........
 25                  26                     27
|-------------------|----------------------|--------------------|
|-------------------|----------------------|--------------------|
|-------------------|----------------------|--------------------|
|--2----------------|--(2)------------2----|--5------------5----|
|--2----------------|--(2)------------2----|--5-----------(5)---|
|--0----------------|--(0)------------0----|--3-----------(3)---|

 28                   29                  30
|--------------------|-------------------|------------------------|
|--------------------|-------------------|------------------------|
|--------------------|-------------------|------------------------|
|-(5)-----------5----|--4----------------|--(4)-------------------|
|--5------------5----|--4----------------|--(4)----------4--4--4--|
|-(3)-----------3----|--2----------------|--(2)----------2--2--2--|
                                                         .......
 31                     32
|----------------------|-------------------------||
|----------------------|-------------------------||
|----------------------|-------------------------||
|--2-------------------|-------------------------||
|--2----------0--2--3--|--(2)--2-------5----3----||
|--0-------------------|------------3-------1----||



================================================================================
Riff 2: Guitars 1 & 2 (Play twice)
================================================================================


                                               |_3_|
||-----------------------|---------------------------|
||-----------------------|---------------------------|
||-----------------------|---------------------------|
||--2----------5----4----|---------------------------|
||--0------0-0-3----2----|--5---------------3--2h3p2-|
||-----------------------|--3------0--1--3-----------|
           ...

|-------------------------|------------------------------|
|-------------------------|------------------------------|
|-------------------------|---------5------7-----7-------|
|--2------------5----4----|--5---5------------7-----7\---|
|--0------0-0-0-3----2----|--3----------5----------------|
|-------------------------|------------------------------|
          .....
                                              |_3_|
|-----------------------|---------------------------|
|-----------------------|---------------------------|
|-----------------------|---------------------------|
|--2----------5----4----|---------------------------|
|--0------0-0-3----2----|--5---------------3--2h3p2-|
|-----------------------|--3------0--1--3-----------|
          ...

|-------------------------|--------------------| |
|-------------------------|--------------------| |
|-------------------------|--------------------|*|
|--2------------5----4----|--5-----------------|*|
|--0------0-0-0-3----2----|--3--------5--------| |
|-------------------------|-----------3--------| |
          .....



After the first repeat, bar 4 is replaced with the following:



|--------------------|
|--------------------|
|--------------------|
|--5--------7--------|
|--3--------5--------|
|--------------------|



Both guitars play this riff, but only guitar 1 plays the 4th bar as it is shown
in the main riff's tab.  Guitar 2 plays the bar as outlined in the footnote at
all times.



================================================================================
Riff 3a: Guitar 1 (Play twice) [Tempo = 70 BPM]
================================================================================


||---------------------------------|-----------------------------------|
||---------------------------------|-----------------------------------|
||---------------------------------|-----------------------------------|
||---------------------------------|------------------10-9----7-9~-(9)\|
||--2---5-5-5h7-7~~-(7)\2-2h3-2----|--2---5-5-5h7-7~~------10----------|
||--0----------------------------3-|--0--------------------------------|


|---------------------------------|-----------------------------------| |
|---------------------------------|-----------------------------------| |
|---------------------------------|-----------------------------------|*|
|---------------------------------|-----------------------------------|*|
|--2---5-5-5h7-7~~-(7)\2-2h3-2----|--2---5-5-5h7-7~-(7)\2-3-2-5-3-2---| |
|--0----------------------------3-|--0------------------------------3-| |
                                                        .............



================================================================================
Riff 3b: Guitar 2 (Play once)
================================================================================


||--------------------|-----------------------------|
||--------------------|-----------------------------|
||--------------------|-----------------------------|
||--2-----------------|--2---------10-9----7-9--(9)\|
||--2---------------2-|--2--------------10----------|
||--0-----------------|--0--------------------------|
                   ...

|---------------------------------|-----------------------------------|
|---------------------------------|-----------------------------------|
|---------------------------------|-----------------------------------|
|---------------------------------|-----------------------------------|
|--2---5-5-5h7-7~~-(7)\2-2h3-2----|--2---5-5-5h7-7~-(7)\2-3-2-5-3-2---|
|--0----------------------------3-|--0------------------------------3-|
                                                        .............

|---------------------------------|-----------------------------------|
|---------------------------------|-----------------------------------|
|---------------------------------|-----------------------------------|
|---------------------------------|------------------10-9----7-9~-(9)\|
|--2---5-5-5h7-7~~-(7)\2-2h3-2----|--2---5-5-5h7-7~~------10----------|
|--0----------------------------3-|--0--------------------------------|


|---------------------------------|-----------------------------------||
|---------------------------------|-----------------------------------||
|---------------------------------|-----------------------------------||
|---------------------------------|-----------------------------------||
|--2---5-5-5h7-7~~-(7)\2-2h3-2----|--2---5-5-5h7-7~-(7)\2-3-2-5-3-2---||
|--0----------------------------3-|--0------------------------------3-||
                                                        .............



================================================================================
Riff 4: Guitars 1 & 2 (Play 4 times) [Tempo = 75 BPM]
================================================================================


||-------------------|-----------------------|--------------------|
||-------------------|-----------------------|--------------------|
||-------------------|-----------------------|--------------------|
||--2----------------|--(2)--------2---------|--------------------|
||--2----------------|--(2)-------------2----|--3--------------2--|
||--0----------------|--(0)------------------|--------------------|


|---------------------------|--------------------|----------------------|
|---------------------------|--------------------|--------R  -----------|
|---------------------------|--------------------|--------E  -----------|
|---------------------------|--2-----------------|--------S  -2---------|
|--(3/ 5)----(5)\-3----5----|--2--------------2--|--2--2--T  ------2----|
|-----------------1----3----|--0--------------0--|--0--0----------------|
                                             ...   ...

|-----------------------|----------------------| |
|-----------------------|----------------------| |
|-----------------------|----------------------|*|
|-----------------------|----------------------|*|
|--3----------5--3--2h3-|--2------2--3----5----| |
|-----------------------|---------0--1----3----| |



================================================================================
Guitars 1 & 2 play riffs 3a + 3b, conforming to their respective repeats
================================================================================

================================================================================
Riff 5a: Guitar 1 (Play once)
================================================================================


* Let ring wherever possible *

| |---------------------------------------|
| |---------------------------------------|
|6|----------0-----------------0----------|
|/|-(3)-3-----------(2)-2-2--2------2-0-0-|
|4|--5------------5--3------------3-------|
| |---------------------------------------|
                 ...

|------------------------------------------|
|------------------------------------------|
|-------0----0-----------------------------|
|-----5----5------5---0-4--4-4h5--4---5-4--|
|--7------------7---7---5----5----5-----5--|
|------------------------------------------|
           ...

|-----------------------------------------|
|-----------------------------------------|
|-----------------------------------------|
|--2---2-2-2-2---2-2-2-2---2-2-2----------|
|--3---3-3-3-3---3-3-3-3---3-3-3-0--4--5--|
|-----------------------------------------|
       .....     .....     .....


|--------------------------------------------|
|--------------------------------------------|
|------------0--------------------0----------|
|-(3)---3--3------3---0(2)-2-2--2------2-0-0-|
|--5--5---------5---5---3------------3-------|
|--------------------------------------------|
                   ...

|-------------------------------------------|
|-------------------------------------------|
|-------0----0------------------------------|
|-----5----5------5---0-4--4-4h5--4--4h5-4--|
|--7------------7---7---5----5----5--5---5--|
|-------------------------------------------|
      ...

|-----------------------------------------||
|-----------------------------------------||
|-----------------------------------------||
|--2---2-2-2-2---2-2-2-2---2-2-2----------||
|--3---3-3-3-3---3-3-3-3---3-3-3-0--4--5--||
|-----------------------------------------||
       .....     .....     .....



================================================================================
Riff 5b: Guitar 2 (Play once)
================================================================================


* Let ring wherever possible *

||-------------------------------------|
||-------------------------------------|
||----------0------0---------0---------|
||-(3)-3---------3--(2)-2-------2------|
||--5----------------3-------------3-0-|
||-------------------------------------|
                                   ...

|---------------------------------------|
|---------------------------------------|
|----------0----------------------------|
|------5------------4----4--4-5--4--4-5\|
|--7--------------0-5--5------5---------|
|---------------0-----------------------|
                ...

|-----------------------------------------|
|-----------------------------------------|
|-----------------------------------------|
|--2---2-2-2-2---2-2-2-2---2-2-2----------|
|--3---3-3-3-3---3-3-3-3---3-3-3-0--4--5--|
|-----------------------------------------|
       .....     .....     .....

|-------------------------------------|
|-------------------------------------|
|----------0------0---------0---------|
|-(3)-3---------3--(2)-2-------2------|
|--5----------------3-------------3-0-|
|-------------------------------------|
                                  ...

|---------------------------------------|
|---------------------------------------|
|----------0----------------------------|
|------5------------4----4--4-4--4--5p4\|
|--7--------------0-5--5----------------|
|---------------0-----------------------|
                ...

|-----------------------------------------||
|-----------------------------------------||
|-----------------------------------------||
|--2---2-2-2-2---2-2-2-2---2-2-2----------||
|--3---3-3-3-3---3-3-3-3---3-3-3-0--4--5--||
|-----------------------------------------||
       .....     .....     .....



================================================================================
Riff 6a: Guitar 1 (Play twice)
================================================================================


||---------------------------------------|
||---------------------------------------|
||---------------------------------------|
||--2------2--4h--5-4---0-4-(5/7)--5--4--|
||---------------------------------------|
||---------------------------------------|


|----------------------------------------------|
|----------------------------------------------|
|-----------(4/5)------5-5-5h7-4h5-2h4-0h2-----|
|--4h 5------------------------------------4h5-|
|-------3--------------------------------------|
|----------------------------------------------|


|----------------------------------------|
|----------------------------------------|
|----------------------------------------|
|--2------2--4--4h5-4---0-4-(5/7)--5--4--|
|----------------------------------------|
|----------------------------------------|


|--------------------------------------------------------| |
|--------------------------------------------------------| |
|--------------------------------------------------------|*|
|--(4/5)--5--5-(5/7)--7--7-(7/9)--9--(9/10)-10-9-0-5-4-5-|*|
|--------------------------------------------------------| |
|--------------------------------------------------------| |



================================================================================
Riff 6b: Guitar 2 (Play according to the repeats outlined below)
================================================================================


* Let notes ring wherever possible *

-------
Part 1:
-------
                                         |_3_|
||---------------------------------------------|
||---------------------------------------------|
||--0----0-0-0--0--0--0------------------------|
||--5----5-5-5--7--5--4-----4h5-(5/7)-5--4h5p4-|
||--7----7-7-7--9--7--5---5--------------------|
||---------------------------------------------|


|------------------------------------------------| |
|------------------------------------------------| |
|------------------------------------------------|*|
|--5---5-5-5-5---5-5-5-5----5-5-5-(5\4)--4-(4/5)-|*| X 2
|--3---3-3-3-3---3-3-3(3\2)-2-2-3----------------| |
|------------------------------------------------| |


-------
Part 2:
-------
                                         |_3_|
||---------------------------------------------|
||---------------------------------------------|
||--0----0-0-0--0--0--0------------------------|
||--5----5-5-5--7--5--4-----4h5-(5/7)-5--4h5p4-|
||--7----7-7-7--9--7--5---5--------------------|
||---------------------------------------------|


|------------------------------------------||
|------------------------------------------||
|------------------------------------------||
|--5---5-5-5-5---5-5-5-5----5-5-5-5--5--5--|| X 1
|--3---3-3-3-3---3-3-3(3\2)-2-2-2-2--2--2--||
|------------------------------------------||


-----------
Part 1 x 1:
-----------

-----------
Part 2 x 1:
-----------


-------
Part 3:
-------
                                         |_3_|
||---------------------------------------------|
||---------------------------------------------|
||--0----0-0-0--0--0--0------------------------|
||--5----5-5-5--7--5--4-----4h5-(5/7)-5--4h5p4-|
||--7----7-7-7--9--7--5---5--------------------|
||---------------------------------------------|


|-------------------------------------------||
|-------------------------------------------||
|-------------------------------------------||
|--5---5-5-5-5---5-5-5-5----5-----5--5------|| X 1
|--3---3-3-3-3---3-3-3(3\2)-2-2-2-2--2--2-2-||
|-------------------------------------------||
       .....     .....        ...       ...



================================================================================
Riff 7a: Guitar 1 (Play once)
================================================================================

  1
||-------------------------------------------|
||-------------------------------------------|
||-------------------------------------0--2--|
||--3------3--5--(5/7)-5h7p5-2---------------|
||------------------------------3-2-0--------|
||-------------------------------------------|
                                ...
 2
|---------------------------------------------------|
|---------------------------------------------------|
|--(2/4)----4-4-4--2h4p2-0--------------------------|
|---------------------------4---0-4-5-(5/7)---5-4h5-|
|---------------------------------------------------|
|---------------------------------------------------|
            ...
 3
|-----------------------------------------------|
|-----------------------------------------------|
|--(4/5)----4h5p4-2---0-------------------------|
|------------------------4-4h5----(5)\----------|
|--------------------------------------0--4--5--|
|-----------------------------------------------|

 4
|-------------------------------------|
|-------------------------------------|
|-------------------------------0--2--|
|--3------3--5--7--5--2---------------|
|------------------------3-2-0--------|
|-------------------------------------|
                         ...
 5
|---------------------------------------------------|
|---------------------------------------------------|
|--(2/4)----4-4-4--2h4p2-0--------------------------|
|---------------------------4---0-4-5-(5/7)---5-4h5-|
|---------------------------------------------------|
|---------------------------------------------------|

 6
|-------------------------------------------||
|-------------------------------------------||
|--(4/5)----4h5p4---------------------------||
|-----------------5---4-5-4-2---------------||
|----------------------------------0--4--5--||
|-------------------------------------------||



================================================================================
Riff 7b: Guitar 2 (Play twice)
================================================================================


* Let notes ring wherever possible *

||------------------------------------|
||------------------------------------|
||----------0----------------0--------|
||--3----3--3----3---2----2--2--------|
||--5----5--5----5-0-3----3--3----0-0-|
||------------------------------------|
                  ...             ...

|-------------------------------------------|
|--0----0--0----0---------------------------|
|--0----0--0----0-0-------------------------|
|--5----5--5--7---5---4--4---4h5-7--4h5-4h5-|
|--7----7--7------7-0-5--5-5-5---5--5---5---|
|-------------------------------------------|
                   ...

|-----------------------------------------| |
|-----------------------------------------| |
|-----------------------------------------|*|
|--2---2-2-2-2---2-2-2-2---2-2-2----------|*|
|--3---3-3-3-3---3-3-3-3---3-3-3-0--4--5--| |
|-----------------------------------------| |
       .....     .....     .....



================================================================================
Guitars 1 & 2 play riff 2 twice
================================================================================

================================================================================
Riff 8a: Guitar 1 (Play once)
================================================================================


  1                             2
||-----------------------------|-----------------------------|
||-----------------------------|-----------------------------|
||-------2-4-4h5----4----------|-------2-4--5-4---5p4----2-4-|
||--2------------------5--(5)\-|--2-------------------5------|
||--0--------------------------|--0--------------------------|
||-----------------------------|-----------------------------|

 3                               4
|-------------------------------|------------------------|
|-------------------------------|------------------------|
|------2-2-2/4-4/5---4----------|--2----4----5----7--4h5-|
|--2--------------------5--(5)\-|------------------------|
|--0----------------------------|------------------------|
|-------------------------------|------------------------|

 5                             6
|-----------------------------|-----------------------------|
|-----------------------------|-----------------------------|
|-------2-4-4h5----4----------|-------2-4--5-4---5p4----2-4-|
|--2------------------5--(5)\-|--2-------------------5------|
|--0--------------------------|--0--------------------------|
|-----------------------------|-----------------------------|

 7                                 8
|---------------------------------|------------------------|
|---------------------------------|------------------------|
|------2-2-2-4-(4/5)---4----------|--2----4----5----7--4h5-|
|--2----------------------5--(5)\-|------------------------|
|--0------------------------------|------------------------|
|---------------------------------|------------------------|

 9                             10
|-----------------------------|-------------------------------|
|-----------------------------|-------------------5-6-5-------|
|------(2/5)p4-----5p4----4---|--2--4-2-5--4-5-7--------7-5-0-|
|--2-----------5--------2-----|-------------------------------|
|--0--------------------------|-------------------------------|
|-----------------------------|-------------------------------|

 11                            12
|-----------------------------|----------------------------|
|-----------------------------|----------------------------|
|------(2/5)p4-----5p4----4---|--2--4-2-5--4-5--7-5-4--5---|
|--2-----------5--------2-----|----------------------------|
|--0--------------------------|----------------------------|
|-----------------------------|----------------------------|

 13                            14
|-----------------------------|-----------------------------|
|-----------------------------|-----------------------------|
|-------2-4-4h5----4----------|-------2-4--5-4---5p4----2-4-|
|--2------------------5--(5)\-|--2-------------------5------|
|--0--------------------------|--0--------------------------|
|-----------------------------|-----------------------------|

 15                                16
|---------------------------------|------------------------|
|---------------------------------|------------------------|
|------2-2-2-4-(4/5)---4----------|--2----4----5----7--4h5-|
|--2----------------------5--(5)\-|------------------------|
|--0------------------------------|------------------------|
|---------------------------------|------------------------|

 17                            18
|-----------------------------|-------------------------------|
|-----------------------------|-------------------5-6-5-------|
|------(2/5)p4-----5p4----4---|--2--4-2-5--4-5-7--------7-5-0-|
|--2-----------5--------2-----|-------------------------------|
|--0--------------------------|-------------------------------|
|-----------------------------|-------------------------------|

 19                            20 *
|-----------------------------|----------------------|
|-----------------------------|----------------------|
|------(2/5)p4-----5p4----4---|--7----5----4---------|
|--2-----------5--------2-----|-----------------5----|
|--0--------------------------|----------------------|
|-----------------------------|----------------------|

 21
|-----------------------||
|------------R-        -||
|------------E-        -||
|------------S-        -||
|--7--7--7\--T-        -||
|--5--5--5\-------------||



* During this bar, the tempo gradually decreases to 60 BPM


================================================================================
Riff 8b: Guitar 1 (Play according the the repeats outlined below)
================================================================================


-------
Part 1:
-------

||-------------------|-------------------|-------------------|
||-------------------|-------------------|-------------------|
||-------------------|-------------------|-------------------|
||--2----------------|--2----------------|--2----------------|
||--0----------------|--0----------------|--0----------------|
||-------------------|-------------------|-------------------|


|------------------------||
|------------------------||
|------------------------||
|--2----4----5----7------|| X 1
|--0----2----3----5--2h3-||
|------------------------||


-------
Part 2:
-------

||----------------------------|-----------------------------|
||----------------------------|-----------------------------|
||----------------------------|-----------------------------|
||--2--------(4/5)----4-------|--2--------5--4--------------|
||--0----0-2-(2/3)----2--5----|--0----0-2-3--2---3p2----0-2-|
||-----------------------3----|----------------------3------|
         ...                          ...
                              *
|----------------------------|------------------------| |
|----------------------------|------------------------| |
|----------------------------|------------------------|*|
|--2--------(4/5)----4-------|--2----4----5----7------|*| X 4
|--0----0-2-(2/3)----2--5----|--0----2----3----5--2h3-| |
|-----------------------3----|------------------------| |
        ...



* During the last repeat of this bar the tempo gradually decreases to 60 BPM



When you've repeated the last part 4 times, finish the song on the following:


   |__3__|
|-----------------------||
|------------R-        -||
|------------E-        -||
|------------S-        -||
|--7--7--7\--T-        -||
|--5--5--5\-------------||



================================================================================
End
================================================================================


Tab summary:        Riff 1 x 1
                    Riff 2 x 2
                    Riff 3a x 2 + Riff 3b x 1
                    Riff 4 x 4
                    Riff 3a x 2 + Riff 3b x 1
                    Riff 5a + 5b x 1
                    Riff 6a x 2 + Riff 6b:
                                          Part 1 x 2
                                          Part 2 x 1
                                          Part 1 x 1
                                          Part 2 x 1
                                          Part 3 x 1
                    Riff 7a x 1 + Riff 7b x 2
                    Riff 2 x 2
                    Riff 8a x 1 + Riff 8b:
                                          Part 1 x 1
                                          Part 2 x 4

                    END


-----------------------
Corrections (30/03/07):
-----------------------

* Corrected Riffs 3a & 3b
* Corrected spelling mistakes


-----------------------
Corrections (29/10/05):
-----------------------

* Corrected slide directions

  Visit MetalTabs.com for more metal tablature

bottom separator

Contact Us | Privacy Policy | Disclaimer | Legal Notice
Copyright © 2001-2014 MetalTabs.com. All Rights Reserved.