top separator

Home

Forum

What's New

Submit a Tab

FAQ

Links

Contact Us

Link to Us

MuSpy.com

MetalTabs.com logo

Bands

0-9

A

B

C

D

E

F

G

H

I

J

K

L

M

N

O

P

Q

R

S

T

U

V

W

X

Y

Z

Search

What

Where
 

Ensiferum - "Abandoned" Guitar Tab

Plain Text Version
More Ensiferum Tabs

Hits: 7242
Rated: 1.33 out of 5 (3 votes)
Updated: 2005-10-04 22:04:19

 

By:

Theoldman

sendpm.gif

email.gif

Important note
This tab is available online because we obtained explicit permission from Ensiferum or their label.


#----------------------------------PLEASE NOTE---------------------------------#
#This file is the author's own work and represents their interpretation of the #
#song. You may only use this file for private study, scholarship, or research. #
#Unless specified otherwise, this is NOT an official tab from the band members.#
#------------------------------------------------------------------------------#

  Visit MetalTabs.com for more metal tablature
  
Band:  Ensiferum
Album: Ensiferum
Song:  Abandoned

Copyright (c)  Spinefarm 2001
Version 1.0 - 27.9.2005

Transcribed By: Theoldman
Email:          swordbearing@hotmail.com
________________________________________

.  - palm mute           /  - slide up to
\  - slide down to       ~  - vibrato
h  - hammer on           b  - Bend
p  - pull off            Suffixes for bend
t  - tap                 f  - full bend    h - half bend
ph - pinched harmonic    q  - quarter bend t - tap bend
*  - see comment         ^  - Hold bend    r release bend
x  - Stuccatto           ~  - vibrato bend
,  - slight palm mute    () - ghost note, sustained note
"  - tremolo note        <> - Trill

Tuning E A D G B E

Riff 1 (0:00-0:38)
|-------------------------------------------------------------------|
|-----------------------8888----------------------------------------|
|---------7777-99999999------101010101010-99-7777-99999999----------|
|77777777--------------------------------------------------10101010-|
|-------------------------------------------------------------------|
|-------------------------------------------------------------------|

|--------------------------------------------------------------------------|
|--------------------------------------------------------------------------|
|101010101010-99-7777-99999999---------------------------------------------|
|------------------------------10101010-99999999-10101010-7777777777777777-|
|--------------------------------------------------------------------------|
|--------------------------------------------------------------------------|



Riff 2 (acoustic) (0:39-0:57)
|0-------|2-------|3-------|0---3---|
|1-------|3-------|0-------|1---0---|
|2-------|2-------|0-------|2---0---|
|2-------|0-------|0-------|2---0---|
|0-------|0-------|2-------|0---2---|
|--------|--------|3-------|----3---|
 Am      D        G        Am   G



Solo 1 (0:58-1:14)
|---------------------------|---------------------------|
|---------------------------|---------------------------|
|-------5---9-7------4------|-------4---5---------------|
|7--------------------------|5------------7------5------|
|---------------------------|---------------------------|
|---------------------------|---------------------------|



Solo 2 (1:15-1:32)
|---------------------------|---------------------------|
|---------------------------|---------------------------|
|-------5---9-7---5-4-5---7-|7------4---5---------------|
|7--------------------------|-------------7------5------|
|---------------------------|---------------------------|
|---------------------------|---------------------------|

|---------------------------|---------------------------|
|---------------------------|---------------------------|
|-------5---9-7---5-4-5---7-|9------4---5---------------|
|7--------------------------|-------------7------5------|
|---------------------------|---------------------------|
|---------------------------|---------------------------|



Riff 1 (1:33-1:51)

Solo 1 (1:52-2:08)

Solo 2 (2:09-2:26)



Riff 3 (2:27-2:44)
|-------------------------|-------------------------|
|-------------------------|-------------------------|
|-------------------------|-------------------------|
|---------10--9-----------|---------7---------------|
|7--------8---7---2---3---|2--------5---5-3-2-3-5---|
|5---5555---------0---1---|0---0000-------------3---|
     ....                      ....
|-------------------------|-------------------------|
|-------------------------|-------------------------|
|-------------------------|-------------------------|
|---------10--9-----------|---------7---------------|
|7--------8---7---2---3---|2--------5---5-3-2-3-5---|
|5---5555---------0---1---|0---0000-------------3---|
     ....                      ....
|-------------------------|-------------------------|
|-------------------------|-------------------------|
|-------------------------|-------------------------|
|---------10--9-----------|---------7---------------|
|7--------8---7---2---3---|2--------5---5-3-2-3-5---|
|5---5555---------0---1---|0---0000-------------3---|
     ....                      ....
|-------------------------|-------------------------|
|-------------------------|-------------------------|
|-------------------------|-------------------------|
|---------10--9-----------|---------7---------------|
|7--------8---7---2---3---|2--------5---5-3-2-3-7-5-|
|5---5555---------0---1---|0---0000-----------------|
     ....                      ....


Solo 3 (2:45-3:10)
|-------------------|
|-------------------|
|-----------------9-|
|--------------12---|
|7----------12------|
|5------------------|

|---------------------------|---------------------------|
|---------------------------|---------------------------|
|10---101210910---12---10---|9--------------------------|
|---------------------------|----12---10---12-----------|
|---------------------------|-------------------10f-----|
|---------------------------|---------------------------|

|------------------------|---------------------------|
|------------------------|10----------------10-------|
|------------------10-12-|---------12-----12---------|
|12-------------12-------|--------------------12-----|
|------10f---------------|---------------------------|
|------------------------|---------------------------|

|---------------------------10/12-|13~--1315131213---15-151312-10-|
|------------------------10-------|-------------------------------|
|-------------------9-10----------|-------------------------------|
|14-12-12--------12---------------|-------------------------------|
|-------------12------------------|-------------------------------|
|---------------------------------|-------------------------------|

|13-151312-----------------------------------------------------------10f------|
|---------10-------------------------------------------------------12---------|
|-----------109------------------------------9------------------910-----------|
|--------------12--------------------------12-12--------------12--------------|
|----------------12----------12----------12-----12----------12----------------|
|------------------1312101213--1312101213---------1312101213------------------|

|10---------------------|
|-----------------------|
|-----------------------|
|-----------------------|
|-----------------------|
|-----------------------|



Solo 4 (3:23-3:27)
|---------------------------|
|---------------------------|
|-------5---9-7---5-4-------|
|7--------------------------|
|---------------------------|
|---------------------------|



Riff 1 (3:28-4:07)



Riff 4 (4:08-4:49)
|------------------------|------------------------|
|------------------------|------------------------|
|------------------------|------------------------|
|------------------------|------------------------|
|7-----------------------|2-----------------------|
|5-5---5---5-5---5---5---|0-0---0---0-0---0---0---|

|------------------------|------------------------|
|------------------------|------------------------|
|------------------------|------------------------|
|7-----------------------|5-----------------------|
|5-5-5-5---5-5---5---5---|3-3---3---3-5-----------|
|------------------------|------------3---3---3---|



Riff 5 (4:50-5:03)
|------------------------|------------------------|
|------------------------|------------------------|
|------------------------|------------------------|
|------------------------|------------------------|
|------------------------|------------------------|
|5-5-5-5---5-5---5---5---|5-5-5-5---5-5---5---5---|
 . . . .   . .   .   .    . . . .   . .   .   .
|------------------------|------------------------|
|------------------------|------------------------|
|------------------------|------------------------|
|------------------------|------------------------|
|------------------------|------------------------|
|5-5-5-5---5-5---5---5---|5-5-5-5---5-5---5---5---|
 . . . .   . .   .   .    . . . .   . .   .   .
|------------------------|------------------------|
|------------------------|------------------------|
|------------------------|------------------------|
|------------------------|------------------------|
|------------------------|------------------------|
|5-5-5-5---5-5---5---5---|0-0-0-0---0-0---0---0---|
 . . . .   . .   .   .    . . . .   . .   .   .
|------------------------|------------------------|
|------------------------|------------------------|
|------------------------|------------------------|
|------------------------|5-----------------------|
|5-5-5-5---5-5---5---5---|3-3-3-3---3-5-----------|
|------------------------|------------3---3---3---|
 . . . .   . .   .   .


Riff 4 (under solo 5) (5:04-6:28)



Solo 5 (5:04-6:28)
|-------------------|------------------|-------------------|-----------------|
|-------------------|------------------|-------6---5-------|-----------------|
|-------5---4-------|--------------4---|7--------------7---|5---7-5---4------|
|7--------------7---|5---------7-------|-------------------|-----------------|
|-------------------|------------------|-------------------|-----------------|
|-------------------|------------------|-------------------|-----------------|



END

  Visit MetalTabs.com for more metal tablature

bottom separator

Contact Us | Privacy Policy | Disclaimer | Legal Notice
Copyright © 2001-2014 MetalTabs.com. All Rights Reserved.