top separator

Home

Forum

What's New

Submit a Tab

FAQ

Links

Contact Us

Link to Us

MetalTabs.com logo

Bands

0-9

A

B

C

D

E

F

G

H

I

J

K

L

M

N

O

P

Q

R

S

T

U

V

W

X

Y

Z

Search

What

Where
 

Demolition Hammer - "Human Dissection" Guitar Tab

Plain Text Version
More Demolition Hammer Tabs

Hits: 4508
Rated: 1.00 out of 5 (1 vote)
Updated: 2005-10-04 21:43:05

 

By:

MetalThrashingMad

sendpm.gif

email.gif

Important note
We did our best to reach Demolition Hammer and ask for their permission to publish this tab. Unfortunately they did not respond to our requests or we could not find a way to contact them. This tab is available online until Demolition Hammer tells us to take it down.


#----------------------------------PLEASE NOTE---------------------------------#
#This file is the author's own work and represents their interpretation of the #
#song. You may only use this file for private study, scholarship, or research. #
#Unless specified otherwise, this is NOT an official tab from the band members.#
#------------------------------------------------------------------------------#

  Visit MetalTabs.com for more metal tablature
  
DEMOLITION HAMME
                        As recorded by Demolition Hammer
                   (From the 1992 Album EPIDEMIC OF VIOLENCE)
                        Copyright(c) Century Media 1992

Arranged by Demolition Hammer
Transcribed by Steve Rubaszek
Verison 1.0 - September 23, 2005

Gtr I (D# G# C# F# A# D#) - 'Guitar 1'
Gtr II (D# G# C# F# A# D#) - 'Guitar 2'


 0:00
  Q=185
 4/4
  Gtrs I, II
      PM    PM
|-----------------|----------|------------|------------|--------|
|-----------------|----------|------------|------------|--------|
|-----------------|----------|------------|------------|--------|
|-----------------|----------|------------|------------|--------|
|-4S3---4S3---4S5-|-2--------|-(2)--------|-(2)--------|-(2)----|
|-2S1-1-2S1-1-2S3-|-0--------|-(0)--------|-(0)--------|-(0)----|


    PM------------|     PM----------|     PM----------|       PM    PM
                                                                            6x
||------------------|-----------------|-----------------|-------------------||
||o-----------------|-----------------|-----------------|------------------o||
||------------------|-----------------|-----------------|-------------------||
||------------------|-----------------|-----------------|-------------------||
||o-----------------|-4S3-------------|-4S3-------------|-4S3---4S3---4S5--o||
||--0-0-0-0-0-0-0-0-|-2S1-0-0-0-0-0-0-|-2S1-0-0-0-0-0-0-|-2S1-1-2S1-1-2S3---||


    PM--------------------------------------------------------------|
||----------------------------------|----------------------------------|
||o---------------------------------|----------------------------------|
||----------------------------------|----------------------------------|
||----------------------------------|----------------------------------|
||o---------------------------------|----------------------------------|
||--2-2-2-2-2-2-2-2-2-2-2-2-2-2-2-2-|-2-2-2-2-2-2-2-2-2-2-2-2-2-2-2-2--|


  PM----------------------------------------------|
|---------------------------------|--------------------------||
|---------------------------------|-------------------------o||
|---------------------------------|--------------------------||
|---------------------------------|-----------------4S3------||
|---------------------------------|-----------------2S1-4S5-o||
|-2-2-2-2-2-2-2-2-2-2-2-2-2-2-2-2-|-2-2-2-2-2-2-2-2-----2S3--||


   0:48
    PM------------|     PM----------|     PM----------|       PM    PM
                                                                            4x
||------------------|-----------------|-----------------|-------------------||
||o-----------------|-----------------|-----------------|------------------o||
||------------------|-----------------|-----------------|-------------------||
||------------------|-----------------|-----------------|-------------------||
||o-----------------|-4S3-------------|-4S3-------------|-4S3---4S3---4S5--o||
||--0-0-0-0-0-0-0-0-|-2S1-0-0-0-0-0-0-|-2S1-0-0-0-0-0-0-|-2S1-1-2S1-1-2S3---||


    PM--------------------------------------------------------------|
||----------------------------------|----------------------------------|
||o---------------------------------|----------------------------------|
||----------------------------------|----------------------------------|
||----------------------------------|----------------------------------|
||o---------------------------------|----------------------------------|
||--2-2-2-2-2-2-2-2-2-2-2-2-2-2-2-2-|-2-2-2-2-2-2-2-2-2-2-2-2-2-2-2-2--|


  PM----------------------------------------------|
|---------------------------------|--------------------------||
|---------------------------------|-------------------------o||
|---------------------------------|--------------------------||
|---------------------------------|-----------------4S3------||
|---------------------------------|-----------------2S1-4S5-o||
|-2-2-2-2-2-2-2-2-2-2-2-2-2-2-2-2-|-2-2-2-2-2-2-2-2-----2S3--||


    PM------------|     PM----------|     PM----------|       PM    PM
||------------------|-----------------|-----------------|-------------------||
||o-----------------|-----------------|-----------------|------------------o||
||------------------|-----------------|-----------------|-------------------||
||------------------|-----------------|-----------------|-------------------||
||o-----------------|-4S3-------------|-4S3-------------|-4S3---4S3---4S5--o||
||--0-0-0-0-0-0-0-0-|-2S1-0-0-0-0-0-0-|-2S1-0-0-0-0-0-0-|-2S1-1-2S1-1-2S3---||


 1:30
           Q=240
|----------|----------|
|----------|----------|
|----------|----------|
|----------|----------|
|-2--------|-2--------|
|-0--------|-0--------|


    PM----------------------------|      PM----|
||----------------------------------|------------------|
||o---------------------------------|------------------|
||----------------------------------|------------------|
||----------------------------------|------------4--3--|
||o---------------------------------|-5----------2--1--|
||--0-0-0-0-0-0-0-0-0-0-0-0-0-0-0-0-|-3--0-0-0-0-------|


  PM----------------------------|      PM----|
                                                        6x
|---------------------------------|---------------------||
|---------------------------------|--------------------o||
|---------------------------------|---------------------||
|---------------------------------|---------------------||
|---------------------------------|-5----------5S=8----o||
|-0-0-0-0-0-0-0-0-0-0-0-0-0-0-0-0-|-3--0-0-0-0-3S=6-----||


   1:53
                                              PM-|
||------------|-----------|-----------|---------------||
||o-----------|-----------|-----------|--------------o||
||------------|-----------|-----------|---------------||
||------------|------5----|-4---------|---------------||
||o-2----5----|-4----3----|-2----5----|-4S=5--2--2---o||
||--0----3----|-2---------|------3----|-2S=3--0--0----||


  PM-|          PM-|          PM-|
|-------------|-------------|-------------|-------------|
|-------------|-------------|-------------|-------------|
|-------------|-------------|-------------|-------------|
|-------4--3--|-------4--5--|-------4--3--|----3--4-----|
|-------2--1--|-------2--3--|-------2--1--|----1--2--5--|
|-0--0--------|-0--0--------|-0--0--------|-0--------3--|


    PM-|          PM-|          PM-|
||--------------|-------------|-------------|----------------||
||o-------------|-------------|-------------|---------------o||
||--------------|-------------|-------------|----------------||
||--------4--3--|-------4--5--|-------4--3--|----3--4--------||
||o-------2--1--|-------2--3--|-------2--1--|----1--2-------o||
||--0--0--------|-0--0--------|-0--0--------|-0--------1-1---||


  PM-|          PM-|          PM-|
|-------------|-------------|-------------|-------------|
|-------------|-------------|-------------|-------------|
|-------------|-------------|-------------|-------------|
|-------4--3--|-------4--5--|-------4--3--|----3--------|
|-------2--1--|-------2--3--|-------2--1--|----1--4--5--|
|-0--0--------|-0--0--------|-0--0--------|-0-----2--3--|


   2:13
    Q=185
    PM--------------|
||--------------------|-----------------|
||o-------------------|-----------------|
||--------------------|-----------------|
||--------------------|-------4S3-3-4S6-|
||o-------------------|-5S4-4-2S1-1-2S4-|
||--0-0-0-0-0-0-0-0-0-|-3S2-2-----------|


  PM--------------|
                                        8x
|-------------------|-------------------||
|-------------------|------------------o||
|-------------------|-------------------||
|-------------------|-------4S3-3-4S6---||
|-------------------|-5S4-4-2S1-1-2S4--o||
|-0-0-0-0-0-0-0-0-0-|-3S2-2-------------||


      PM--|     PM        PM--|     PM
||--------------------|-------------------|
||o-------------------|-------------------|
||--------------------|-------------------|
||--------------------|-------------------|
||o-5-------5S4-4-5S4-|-5-------5S4-4-5S6-|
||--3-2-2-2-3S2-2-3S2-|-3-2-2-2-3S2-2-3S4-|


    PM--|     PM      PM------------|
                                       4x
|-------------------|------------------||
|-------------------|-----------------o||
|-------------------|------------------||
|-------------------|------------------||
|-5-------5S4-4-5S4-|-----3-2-----2-1-o||
|-3-2-2-2-3S2-2-3S2-|-2-3-----2-3------||


   3:06
    PM|         PM|           PM|           PM--|   PM
                                                         4x
||------------------|-----------------|------------------||
||o-----------------|-----------------|-----------------o||
||------------------|-----------------|------------------||
||------------------|-----------------|------------------||
||o-----3p0-2p0-----|-3p0-2p0-----3p0-|-2p0-------3---2-o||
||--2-3---------2-3-|---------2-3-----|-----2-3-3---3----||


      PM--|     PM        PM--|     PM
||--------------------|-------------------|
||o-------------------|-------------------|
||--------------------|-------------------|
||--------------------|-------------------|
||o-5-------5S4-4-5S4-|-5-------5S4-4-5S6-|
||--3-2-2-2-3S2-2-3S2-|-3-2-2-2-3S2-2-3S4-|


    PM--|     PM      PM------------|
                                       5x
|-------------------|------------------||
|-------------------|-----------------o||
|-------------------|------------------||
|-------------------|------------------||
|-5-------5S4-4-5S4-|-----3-2-----2-1-o||
|-3-2-2-2-3S2-2-3S2-|-2-3-----2-3------||


    PM--|     PM        PM--|     PM        PM--|     PM        PM|   PM|
|-------------------|-------------------|-------------------|------------------|
|-------------------|-------------------|-------------------|------------------|
|-------------------|-------------------|-------------------|------------------|
|-------------------|-------------------|-------------------|------------------|
|-5-------5S4-4-5S4-|-5-------5S4-4-5S6-|-5-------5S4-4-5S4-|-3-----3-----3-4--|
|-3-2-2-2-3S2-2-3S2-|-3-2-2-2-3S2-2-3S4-|-3-2-2-2-3S2-2-3S2-|-1-0-0-1-0-0-1-2--|


   3:50
    PM------------|     PM----------|     PM----------|       PM    PM
                                                                            4x
||------------------|-----------------|-----------------|-------------------||
||o-----------------|-----------------|-----------------|------------------o||
||------------------|-----------------|-----------------|-------------------||
||------------------|-----------------|-----------------|-------------------||
||o-----------------|-4S3-------------|-4S3-------------|-4S3---4S3---4S5--o||
||--0-0-0-0-0-0-0-0-|-2S1-0-0-0-0-0-0-|-2S1-0-0-0-0-0-0-|-2S1-1-2S1-1-2S3---||


    PM--------------------------------------------------------------|
||----------------------------------|----------------------------------|
||o---------------------------------|----------------------------------|
||----------------------------------|----------------------------------|
||----------------------------------|----------------------------------|
||o---------------------------------|----------------------------------|
||--2-2-2-2-2-2-2-2-2-2-2-2-2-2-2-2-|-2-2-2-2-2-2-2-2-2-2-2-2-2-2-2-2--|


  PM----------------------------------------------|
|---------------------------------|--------------------------||
|---------------------------------|-------------------------o||
|---------------------------------|--------------------------||
|---------------------------------|-----------------4S3------||
|---------------------------------|-----------------2S1-4S5-o||
|-2-2-2-2-2-2-2-2-2-2-2-2-2-2-2-2-|-2-2-2-2-2-2-2-2-----2S3--||


    PM------------|     PM----------|     PM----------|       PM    PM
                                                                            4x
||------------------|-----------------|-----------------|-------------------||
||o-----------------|-----------------|-----------------|------------------o||
||------------------|-----------------|-----------------|-------------------||
||------------------|-----------------|-----------------|-------------------||
||o-----------------|-4S3-------------|-4S3-------------|-4S3---4S3---4S5--o||
||--0-0-0-0-0-0-0-0-|-2S1-0-0-0-0-0-0-|-2S1-0-0-0-0-0-0-|-2S1-1-2S1-1-2S3---||


    PM--------------------------------------------------------------|
||----------------------------------|----------------------------------|
||o---------------------------------|----------------------------------|
||----------------------------------|----------------------------------|
||----------------------------------|----------------------------------|
||o---------------------------------|----------------------------------|
||--2-2-2-2-2-2-2-2-2-2-2-2-2-2-2-2-|-2-2-2-2-2-2-2-2-2-2-2-2-2-2-2-2--|


  1.
  PM----------------------------------------------|
|---------------------------------|--------------------------||
|---------------------------------|-------------------------o||
|---------------------------------|--------------------------||
|---------------------------------|-----------------4S3------||
|---------------------------------|-----------------2S1-4S5-o||
|-2-2-2-2-2-2-2-2-2-2-2-2-2-2-2-2-|-2-2-2-2-2-2-2-2-----2S3--||


  2.
      PM    PM
|-----------------|----------|--------|
|-----------------|----------|--------|
|-----------------|----------|--------|
|-----------------|----------|--------|
|-4S3---4S3---4S5-|-2--------|-(2)----|
|-2S1-1-2S1-1-2S3-|-0--------|-(0)----|


   >
|------------|------------|------------|------------|
|------------|------------|------------|------------|
|------------|------------|------------|------------|
|------------|------------|------------|------------|
|-(2)--------|-(2)--------|-(2)--------|-(2)--------|
|-(0)--------|-(0)--------|-(0)--------|-(0)--------|


|------------|------------|------------|------------|--------*|
|------------|------------|------------|------------|--------*|
|------------|------------|------------|------------|--------*|
|------------|------------|------------|------------|--------*|
|-(2)--------|-(2)--------|-(2)--------|-(2)--------|-(2)----*|
|-(0)--------|-(0)--------|-(0)--------|-(0)--------|-(0)----*|


Tablature Legend
----------------
 h   - hammer-on
 p   - pull-off
 b   - bend
 pb  - pre-bend
 r   - bend release (if no number after the r, then release immediately)
 /\  - slide into or out of (from/to "nowhere")
 s   - legato slide
 S   - shift slide
<n>  - natural harmonic
[n]  - artificial harmonic
n(n) - tapped harmonic
 ~   - vibrato
 tr  - trill
 T   - tap
 TP  - trem. picking
 PM  - palm muting
\n/  - tremolo bar dip; n = amount to dip
 \n  - tremolo bar down
 n/  - tremolo bar up
/n\  - tremolo bar inverted dip
 =   - hold bend; also acts as connecting device for hammers/pulls
 <>  - volume swell (louder/softer)
 x   - on rhythm slash represents muted slash
 o   - on rhythm slash represents single note slash

Misc Legend
-----------
 |  - bar
||  - double bar
||o - repeat start
o|| - repeat end
*|  - double bar (ending)
 :  - bar (freetime)
 $  - Segno
 &  - Coda
Tempo markers - <E/E./Q/Q./H/H.> = BPM(8/16=s8/s16), where s8 = swing 8ths,
s16 = swing 16ths

  Visit MetalTabs.com for more metal tablature

bottom separator

Contact Us | Privacy Policy | Disclaimer | Legal Notice
Copyright © 2001-2014 MetalTabs.com. All Rights Reserved.