top separator

Home

Forum

What's New

Submit a Tab

FAQ

Links

Contact Us

Link to Us

MuSpy.com

MetalTabs.com logo

Bands

0-9

A

B

C

D

E

F

G

H

I

J

K

L

M

N

O

P

Q

R

S

T

U

V

W

X

Y

Z

Search

What

Where
 

Putrid Pile - "Gallery Of Horrors" Guitar Tab

Plain Text Version
More Putrid Pile Tabs

Hits: 4547
Rated: 5.00 out of 5 (1 vote)
Updated: 2005-10-04 21:42:40

 

By:

sendpm.gif

email.gif

Co-authored by:

Yura

sendpm.gif

email.gif

Important note
This tab is available online because we obtained explicit permission from Putrid Pile or their label.


#----------------------------------PLEASE NOTE---------------------------------#
#This file is the author's own work and represents their interpretation of the #
#song. You may only use this file for private study, scholarship, or research. #
#Unless specified otherwise, this is NOT an official tab from the band members.#
#------------------------------------------------------------------------------#

  Visit MetalTabs.com for more metal tablature
  
--- P U T R I D  P I L E ---
                               "Gallery Of Horrors"
                     From album: "Collection Of Butchery" (2003)
                     Transcribed by: Yura Kowalchuk
                     Contact: [yura_kowalchuk@mail.ru]
                              [blood-scrapes@nm.ru]

NOTES:
 " - tremolo
tr.. - tremolo picking notes
 x - hard palm muting
 = - sustained note

tr - trill
h - hammer on              ~ - vibrato
p - pull off               b - bend string
^ - pinch harmonics        p.m. - palm mute
x - muted note             t - right hand tap
/ - slide up               \ - slide down

Tuning (low to high): C#,F#,B,e,g#,c#

Riff 1 (x2)
-|----------------------------------|
-|----------------------------------|
-|----------------------------------|
-|-----4------4------4------5\4-----|
-|-4-5-2--4-5-2--4-5-2--4-3-3\2-4-3-|
-|-2-3----2-3----2-3----2-1-----2-1-|

Riff 2 (x5)
-|----------------------------------------------------------|
-|----------------------------------------------------------|
-|----------------------------------------------------------|
-|-----------------------3-------------4\3-----------3------|
-|-4-3-2-3-4-3-2--3--2-3-1--2-3-4--2-3-2\1-2-3-4-3-2-1--2-3-|
-|-2-1-0-1-2-1-0--1--0-1----0-1-2--0-1-----0-1-2-1-0----0-1-|
   . . . . . . .  .  . .    . . .  . .     . . . . .    . .

Riff 3 (x2)
-|-------------------------|-------------------------|
-|-------------------------|-------------------------|
-|-------------------------|-------------------------|
-|-----------3---------3"--|-----------3---------2"--|
-|-4-3-2-3-4-1-4-3---------|-4-3-2-3-4-1-4-3---------|
-|-2-1-0-1-2---2-1-0"..----|-2-1-0-1-2---2-1-0"..----|
   . . . . .   . .           . . . . .   . .

[RIFF 2 (x4)] [RIFF 3 (x)]

Riff 4 (x2)
-|-----------------------------|----------------------|
-|-----------------------------|----------------------|
-|-----------------------------|----------------------|
-|-----------------------3-----|----------------------|
-|-4-3---2-3---4-3-2-3-4-1-4-3-|-4-3---2-3---2"----3"-|
-|-2-1---0-1---2-1-0-1-2---2-1-|-2-1---0-1-----3"2"---|
   . .   . .   . . . . .   . .   . .   . .

Riff 5
-|-----------------------------------|----------------------------------|
-|-----------------------------------|----------------------------------|
-|-----------------------------------|----------------------------------|
-|-----------------------------------|----------------------------------|
-|-----3p2--------------------2"--1"-|-----3p2--------------------2"-1"-|
-|-0"..----3-2"..-0h2h3-2"-1"---3"---|-0"..----3-2"..-0h2h3-2"-1"-------|

[RIFF 4 (x4)] [RIFF 5 (x2)] [RIFF 3 (x2)] [RIFF 2 (x4)]

END OF SONG

  Visit MetalTabs.com for more metal tablature

bottom separator

Contact Us | Privacy Policy | Disclaimer | Legal Notice
Copyright © 2001-2014 MetalTabs.com. All Rights Reserved.