top separator

Home

Forum

What's New

Submit a Tab

FAQ

Links

Contact Us

Link to Us

MetalTabs.com logo

Bands

0-9

A

B

C

D

E

F

G

H

I

J

K

L

M

N

O

P

Q

R

S

T

U

V

W

X

Y

Z

Search

What

Where
 

Putrid Pile - "Covered In Excrement" Guitar Tab

Plain Text Version
More Putrid Pile Tabs

Hits: 3666
Rated: 5.00 out of 5 (1 vote)
Updated: 2005-10-04 21:42:24

 

By:

sendpm.gif

email.gif

Co-authored by:

Yura

sendpm.gif

email.gif

Important note
This tab is available online because we obtained explicit permission from Putrid Pile or their label.


#----------------------------------PLEASE NOTE---------------------------------#
#This file is the author's own work and represents their interpretation of the #
#song. You may only use this file for private study, scholarship, or research. #
#Unless specified otherwise, this is NOT an official tab from the band members.#
#------------------------------------------------------------------------------#

  Visit MetalTabs.com for more metal tablature
  
--- P U T R I D  P I L E ---
                              "Covered In Excrement"
                     From album: "Collection Of Butchery" (2003)
                     Copyright United Guttural Records 2003
                     Transcribed by: Yura Kowalchuk
                     Contact: [yura_kowalchuk@mail.ru]
                              [blood-scrapes@nm.ru]

NOTES:
 " - tremolo
tr.. - tremolo picking notes
 x - hard palm muting
 = - sustained note

tr - trill
h - hammer on              ~ - vibrato
p - pull off               b - bend string
^ - pinch harmonics        p.m. - palm mute
x - muted note             t - right hand tap
/ - slide up               \ - slide down

Tuning (low to high): C#,F#,B,e,g#,c#

[Intro]
-|---------------------------------|---------------------------------|
-|---------------------------------|---------------------------------|
-|---------------------------------|---------------------------------|
-|---------------------------------|-----------------------------3---|
-|---------------------------3-4-3-|-------------------------3---1---|
-|-0-0-0-0-0-0-0-0-0-0-0-0-0-1-2-1-|-0-0-0-0-0-0-0-0-0-0-0-0-1-0-----|
 | . . . . . . . . . . . . . . . . | . . . . . . . . . . . . . .     |
-|---------------------------------|---------------------------------|
-|---------------------------------|---------------------------------|
-|---------------------------------|---------------------------------|
-|---------------------------------|-----------------------------3---|
-|-2-------2-------2---------------|-2-------2-------2-------3---1---|
-|-0-------0-------0---------------|-0-------0-------0-------1-0-----|
   .       .       .                 .       .       .       . .

[Riff 1 (x4)]
-|-------------------------------------------------------------|
-|-------------------------------------------------------------|
-|-------------------------------------------------------------|
-|-3\2-----------------------3/4---------4\3-----5\4-----3"-2"-|
-|-1\0-----3------3------3---1/2---4-3---2\1---3-3\2-----------|
-|-----0-0-1--0-0-1--0-0-1-0-----0-2-1-0-----0-1-----0-0-------|
       . . .  . . .  . . . .     . . . .     . .     . .

[Riff 2 (x4)]           [RIFF 1]
-|---------------------|--------|
-|---------------------|--------|
-|---------------------|--------|
-|---------------3"-2"-|--[x4]--|
-|-3"---6"-2"-3"-------|--------|
-|---------------------|--------|

[Riff 3 (x4)]
-|---------------------|-[ending 1,3]--------|-[ending 2,4]---|
-|---------------------|---------------------|----------------|
-|---------------------|---------------------|----------------|
-|-------3\2-------5\4-|---------------2"-1"-|----------------|
-|---3---1\0---3---3\2-|---2h3-1h2-2h3-------|----3-2---2"-1"-|
-|-0-1-0-----0-1-0-----|-0"------------------|-0"-----3-------|
   . . .     . . .                                . . .

[Riff 4]
-|----------------------|---------------|
-|----------------------|---------------|
-|----------------------|---------------|
-|-------4--------------|----6---4---3--|
-|-2---5-2--2/4-5\4--3--|-2--4-7-2-5-1--|
-|-0---3----0/2-3\2--1--|-0----5---3----|

[RIFF 4 /tremolo/] [RIFF 4] [RIFF 4 /tremolo/ (x2)] [RIFF 3 (x4)]

[Outro]
-|----------------|
-|----------------|
-|----------------|
-|----------------|
-|-2=========-3-3-|
-|-0=========-1-1-|
              . .

[Riff 6 (x2)]
-|------------------------|--------------------------|
-|------------------------|--------------------------|
-|------------------------|--------------------------|
-|--------------4----3----|---------------4----4-5-4-|
-|-2====--2-4-5-2--5-1-4--|-2=====--2-4-5-2--2-2-3-2-|
-|-0====--0-2-3----3---2--|-0=====--0-2-3----0-------|

[RIFF 6 /tremolo/ (x4)]

END OF SONG

  Visit MetalTabs.com for more metal tablature

bottom separator

Contact Us | Privacy Policy | Disclaimer | Legal Notice
Copyright © 2001-2014 MetalTabs.com. All Rights Reserved.