top separator

Home

Forum

What's New

Submit a Tab

FAQ

Links

Contact Us

Link to Us

MetalTabs.com logo

Bands

0-9

A

B

C

D

E

F

G

H

I

J

K

L

M

N

O

P

Q

R

S

T

U

V

W

X

Y

Z

Search

What

Where
 

Toxik - "Heart Attack" Guitar Tab

Plain Text Version
More Toxik Tabs

Hits: 5056
Rated: 5.00 out of 5 (6 votes)
Updated: 2006-10-26 08:25:41

 

By:

MetalThrashingMad

sendpm.gif

email.gif

Important note
This tab is available online because we obtained explicit permission from Toxik or their label.


#----------------------------------PLEASE NOTE---------------------------------#
#This file is the author's own work and represents their interpretation of the #
#song. You may only use this file for private study, scholarship, or research. #
#Unless specified otherwise, this is NOT an official tab from the band members.#
#------------------------------------------------------------------------------#

  Visit MetalTabs.com for more metal tablature
  
HEART ATTACK
                             As recorded by Toxik
                       (From the 1988 Album WORLD CIRCUS)
                     Copyright (c) 1988 Roadrunner Records
                                           _______________________
Transcribed by:                           | KEY:                  |
            Steve Rubaszek                |                       |
                                          | _  = Palm mute        |
Email:                                    |                       |
            Thrasher502@hotmail.com       | \/ = slide down/up    |
                                          |                       |
Version: 1.2                              | x  = scrape           |
            September 10, 2006            |                       |
                                          | ph - pinched harmonic |
Arranged by Toxik                         |_______________________|


|-------------|
|-------------|
|-------------|
|--------/9\--|
|------2------|
|-------------|


 Intro 1 x2
|-------------------|------------------|-----------|--------------|
|-----4--4-----4--4-|-----4--4---------|-----------|--------------|
|-----4--4-----4--4-|-----4--4-----6-6-|-5------6--|-7----------3-|
|-----4--4-----4--4-|-----4--4-----6-6-|-5------6--|-7----------3-|
|-2-2------2-2------|-2-2------2-2-----|-----------|------11111---|
|-------------------|------------------|-----------|--------------|
  ___      ___        ___      ___                        _____


                                                       vibrato w/ bar
|-------------------|------------------|----------|-------------|
|-----4--4-----4--4-|-----4--4---------|----------|-------------|
|-----4--4-----4--4-|-----4--4-----6-6-|-5-----/6-|-/7----------|
|-----4--4-----4--4-|-----4--4-----6-6-|-5-----/6-|-/7----7~~~~-|
|-2-2------2-2------|-2-2------2-2-----|----------|-------------|
|-------------------|------------------|----------|-------------| end Intro 1
  ___      ___        ___      ___


 Intro 2
|-------------------|-----------------|------------------|-----------------|
|-----4--4-----4--4-|-----4-----------|-----4-4------4-4-|-----------------|
|-----4--4-----4--4-|-----4-----5-----|-----4-4------4-4-|-----------------|
|-----4--4-----4--4-|-----4-----5-----|-----4-4------4-4-|-----------------|
|-2-2------2-2------|-2-2----33---000-|-2-2------2-2-----|-2-555-444-222-0-|
|-------------------|-----------------|------------------|-----------------|
  ___      ___        ___    __   ___   ___      ___         ___________


                                                          ph | - - - - - -|
|-------------------|-----------------|------------------|-----------------|
|-----4--4-----4--4-|-----4-----------|-----4-4------4-4-|-----------------|
|-----4--4-----4--4-|-----4-----5-----|-----4-4------4-4-|---4-2-0---------|
|-----4--4-----4--4-|-----4-----5-----|-----4-4------4-4-|---------4-2-0---|
|-2-2------2-2------|-2-2----33---000-|-2-2------2-2-----|-2-------------3-|
|-------------------|-----------------|------------------|-----------------|
  ___      ___        ___    __   ___   ___      ___


0:50


 Verse 1
|-----------------|-----------------|-----------------|----------------|
|-----------------|-----------------|-----------------|----------------|
|-----------------|-----------------|-----------------|---------7-6-7\-|
|-----------------|-----------------|-----------------|---------5-4-5\-|
|-2-2-532-2-2-532-|-2-2-532---------|-2-2-532-2-2-532-|-2-2-532--------|
|-----------------|---------3-2-3-5-|-----------------|----------------|
  _______________   _______           _______________   _______


|-----------------|-----------------|-----------------|----------------|
|-----------------|-----------------|-----------------|----------------|
|-----------------|-----------------|-----------------|----------------|
|-----------------|-----------------|-----------------|-(pick-scrape)--|
|-2-2-532-2-2-532-|-2-2-532---------|-2-2-532-2-2-532-|--x\x\x\x\x\x\--|
|-----------------|---------3-2-3-5-|-----------------|--x\x\x\x\x\x\--|
  _______________   _______           _______________


 Verse 1a x2
|-----------------|-----------------|-----------------|---------|
|-----------------|-----------------|-----------------|---------|
|-----------------|-----------------|-----------------|---------|
|-----------------|-----------------|-----------------|---------|
|-2-2-532-2-2-532-|-2-2-532---------|-2-2-532-2-2-532-|-3--3--3-|
|-----------------|---------3-2-3-5-|-----------------|-1--1--1-|
  _______________   _______           _______________


1:10


 Verse 2a
|--------0-|---------0-|--------------------|--------------------|
|----------|-----------|--------------------|--------------------|
|-----2----|-----------|--------------------|--------------------|
|---2------|------2----|--------------------|--------------------|
|-0--------|----2------|-2-2222-2222-2222-5-|-2-2222-2222-2222-5-|
|----------|--0--------|--------------------|--------------------|
                         ________________     ________________

 Verse 2b
|--------0-|---------0-|------------------|----------------|
|----------|-----------|------------------|----------------|
|-----2----|-----------|---5--------------|----------------|
|---2------|------2----|-5---55554-556-54-|-2-222222-7-5-4-|
|-0--------|----2------|------------------|----------5-3-2-|
|----------|--0--------|------------------|----------------|
                         _   ____________   ______________


 Verse 2c
|--------0-|---------0-|--------------------|--------------------|
|----------|-----------|--------------------|--------------------|
|-----2----|-----------|--------------------|--------------------|
|---2------|------2----|--------------------|--------------------|
|-0--------|----2------|-2-2222-2222-2222-5-|-2-2222-2222-2222-5-|
|----------|--0--------|--------------------|--------------------|
                         ________________     __________________


 Verse 2d
|--------0-|---------0-|-------------|-----------|
|----------|-----------|----7-----7--|-----------|
|-----2----|-----------|-------7-----|-----------|
|---2------|------2----|-7-----------|-----------|
|-0--------|----2------|-9-----------|----/9\----|
|----------|--0--------|-------------|-----------|


 Verse 1a
|-----------------|-----------------|-----------------|---------|
|-----------------|-----------------|-----------------|---------|
|-----------------|-----------------|-----------------|---------|
|-----------------|-----------------|-----------------|---------|
|-2-2-532-2-2-532-|-2-2-532---------|-2-2-532-2-2-532-|-3--3--3-|
|-----------------|---------3-2-3-5-|-----------------|-1--1--1-|
  _______________   _______           _______________


 Verse 1b
|-----------------|-----------------|-----------------|-----------------|
|-----------------|-----------------|-----------------|-----------------|
|-----------------|-----------------|-----------------|-----------------|
|-----------------|-----------------|-----------------|-7---7---7---7---|
|-2-2-532-2-2-532-|-2-2-532---------|-2-2-532-2-2-2/--|---6---6---6---6-|
|-----------------|---------3-2-3-5-|-----------------|-----------------|
  _______________   _______________   ___________


 Verse 2a
 Verse 2b
 Verse 2c


 Verse 2e                 tp
|--------0-|---------0-|-------------|------|---------|
|----------|-----------|-------------|------|---------|
|-----2----|-----------|-11----------|------|---------|
|---2------|------2----|-9-----------|-rest-|-2-2-2-2-|
|-0--------|----2------|-7-----------|------|-0-0-0-0-|
|----------|--0--------|-------------|------|---------|


 2:01


 Chorus a
|------------------|---------------|------------------|----------------|
|------------------|---------------|------------------|----------------|
|------------------|---------------|------------------|----------------|
|-------5----------|---------------|-------5----------|-------------4--|
|-0h2-2-3-2-222222-|-0h2-2-0---2-5-|-0h2-2-3-2-222222-|-0h2-2-0-5-4-2--|
|------------------|---------3-----|------------------|---------3-2----|
            ______                             ______


 Chorus b
|------------------|---------------|------------------|-----------|-----------|
|------------------|---------------|------------------|-----------|-----------|
|------------------|---------------|------------------|-----------|-7654------|
|-------5----------|---------------|-------5----------|-----------|------7654-|
|-0h2-2-3-2-222222-|-0h2-2-0---2-5-|-0h2-2-3-2-222222-|-5432------|-----------|
|------------------|---------3-----|------------------|------5432-|-----------|
            ______                             ______


 Verse 1a
 Verse 1b

 Verse 2a
 Verse 2b
 Verse 2c
 Verse 2d

 Chorus a


 Chorus c
|------------------|---------------|------------------|-----------|-----------|
|------------------|---------------|------------------|-----------|-----------|
|------------------|---------------|------------------|-----------|-----------|
|-------5----------|---------------|-------5----------|-----------|-----------|
|-0h2-2-3-2-222222-|-0h2-2-0---2-5-|-0h2-2-3-2-222222-|-5432------|-4321------|
|------------------|---------3-----|------------------|------5432-|------4321-|
            ______                             ______


 2:55


 Under solo 1 x3
|-------|--------|-----------------|-----------------|
|-------|--------|-----------------|-----------------|
|-9-----|--------|-----------------|-----------------|
|-9-----|-10-----|-----------------|-----------------|
|-7-----|-10-----|-2-2222222222225-|-2-2222222222225-|
|-------|--8-----|-----------------|-----------------|
                     ____________      ___________


 Under solo fig 2
                  x3                                   x3
|-------|--------|-----------------|------------------|-----------------|
|-------|--------|-----------------|------------------|-----------------|
|-9-----|--------|-----------------|------------------|-----------------|
|-9-----|-10-----|-----------------|----------5-4-5-7-|-----------------|
|-7-----|-10-----|-----------------|----------3-2-3-5-|-----------------|
|-------|--8-----|-2-2222222222225-|-2-222222---------|-2-2222222222225-|
                     ____________      ______             ____________


|------|---------|
|------|---------|
|------|---------|
|-rest-|-2-2-2-2-|
|------|-0-0-0-0-|
|------|---------|


 3:25


 Chorus a x2


 Outro
|------------------|---------------|------------------|----------------|
|------------------|---------------|------------------|----------------|
|------------------|---------------|------------------|----------------|
|-------5---444444-|---------------|-------5---444444-|-------------4--|
|-0h2-2-3-2-222222-|-0h2-2-0---2-5-|-0h2-2-3-2-222222-|-0h2-2-0-5-4-2--|
|------------------|---------3-----|------------------|---------3-2----|


|------------------|---------------|------------------|-----------|-----------|
|------------------|---------------|------------------|-----------|-----------|
|------------------|---------------|------------------|-----------|-7654------|
|-------5---444444-|---------------|-------5---444444-|-----------|------7654-|
|-0h2-2-3-2-222222-|-0h2-2-0---2-5-|-0h2-2-3-2-222222-|-5432------|-----------|
|------------------|---------3-----|------------------|------5432-|-----------|

END

  Visit MetalTabs.com for more metal tablature

bottom separator

Contact Us | Privacy Policy | Disclaimer | Legal Notice
Copyright © 2001-2014 MetalTabs.com. All Rights Reserved.