top separator

Home

Forum

What's New

Submit a Tab

FAQ

Links

Contact Us

Link to Us

MetalTabs.com logo

Bands

0-9

A

B

C

D

E

F

G

H

I

J

K

L

M

N

O

P

Q

R

S

T

U

V

W

X

Y

Z

Search

What

Where
 

Mourning Beloveth - "Forever Lost Emeralds" Guitar Tab

Plain Text Version
More Mourning Beloveth Tabs

Hits: 2899
Rated: 5.00 out of 5 (9 votes)
Updated: 2006-11-07 06:24:33

 

By:

Paddy

sendpm.gif

email.gif

Important note
This tab is available online because we obtained explicit permission from Mourning Beloveth or their label.


#----------------------------------PLEASE NOTE---------------------------------#
#This file is the author's own work and represents their interpretation of the #
#song. You may only use this file for private study, scholarship, or research. #
#Unless specified otherwise, this is NOT an official tab from the band members.#
#------------------------------------------------------------------------------#

  Visit MetalTabs.com for more metal tablature
  
================================================================================
                       M O U R N I N G   B E L O V E T H

                                       -

                   F O R E V E R   L O S T   E M E R A L D S
================================================================================


                                 AUTUMNAL FIRES
                                     (Demo)
             (c) Mourning Beloveth (Independent Recording) - 1998
                        http://www.mourningbeloveth.com/

                          -----------------------------
                              Tune Down 1 & 1/2 Steps
                                  C# F# B E G# C#

  This song is a very early, cheap recording, and as a result the pitch of the
  song is slightly higher than outlined in the guitar tunings.  If you want to
    play along with the actual track itself, tune your guitar(s) so that the
                      pitch lies somewhere between C# and D

                          -----------------------------


                                 Tempo =  80 BPM
                               Time Signature = 4/4


                          -----------------------------
                                 Transcribed by

                                 PADDY MCMULLAN
                           stinkypoohpants@yahoo.co.uk

                                   Version 1.0
                             -----------------------

                             Tablature Symbols Used:


 P.M...    -  Palm Mute
 p         -  Pull-Off
 h         -  Hammer-On
 (/)       -  Legato Slide (Blank space indicates length of slide)
 \         -  Slide Down to/Down From (Blank space indicates length of slide)
 /         -  Slide Up To/Up From (Blank space indicates length of slide)
 ( )       -  Ghost Note/Tied Note/Implied Note
 REST      -  Rest and sustain rest for duration of blank space



================================================================================
Intro: Guitar 1 with heavy distortion (Play twice)
================================================================================


||----------------------|-------------------------|--------------------------|
||----------------------|-------------------------|--------------------------|
||--0----0h2---2--------|--(2)--------------------|--0----0h2---2------------|
||----------------------|-------------(0/2)-------|------------------(2/3)---|
||----------------------|-------------------------|--------------------------|
||----------------------|-------------------------|--------------------------|


|---------------------| |
|---------------------| |
|---------------------|*|
|--3\ --0----0--------|*|
|---------------------| |
|---------------------| |



This riff fades in gradually, reaching the full volume on the second repeat



================================================================================
Riff 1a: Guitar 1 (Play twice)
================================================================================


||----------------------|-------------------------|--------------------------|
||----------------------|-------------------------|--------------------------|
||--0----0h2---2--------|--(2)--------------------|--0----0h2---2------------|
||----------------------|-------------(0/2)-------|------------------(2/3)---|
||----------------------|-------------------------|--------------------------|
||----------------------|-------------------------|--------------------------|


|----------------------|----------------------|------------------------|
|----------------------|----------------------|------------------------|
|----------------------|--0----0h2---2--------|--(2)-------------------|
|--3\ --0----2----3----|----------------------|------------(0/2)-------|
|----------------------|----------------------|------------------------|
|----------------------|----------------------|------------------------|


|-------------------------|-------------------------| |
|-------------------------|-------------------------| |
|--0----0h2---2-----(2/5)-|--5--4--5----4h5p4-------|*|
|-------------------------|-------------------------|*|
|-------------------------|-------------------------| |
|-------------------------|-------------------------| |



================================================================================
Riff 1b: Guitar 2 with heavy distortion (Play once)
================================================================================


1                          2                      3
||------------------------|----------------------|-------------------------|
||------------------------|----------------------|-------------------------|
||------------------------|----------------------|-------------------------|
||------------------------|----------------------|-------------------------|
||--5----(5/7)---7--------|--(7)--------2--------|--5----(5/7)---7----3----|
||--3----(3/5)---5--------|--(5)--------0--------|--3----(3/5)---5----1----|

4                        5                        6
|-----------------------|------------------------|----------------------|
|-----------------------|------------------------|----------------------|
|-----------------------|------------------------|----------------------|
|-----------------------|------------------------|----------------------|
|--3----5----5----------|--5----(5/7)---7--------|--(7)--------2--------|
|--1----3----3----3--0--|--3----(3/5)---5--------|--(5)--------0--------|
                 P.M
7                          8                     9
|-------------------------|---------------------|------------------------|
|-------------------------|---------------------|------------------------|
|-------------------------|---------------------|------------------------|
|-------------------------|---------------------|------------------------|
|--5----(5/7)---7----3----|--3----5----5--------|--5----(5/7)---7--------|
|--3----(3/5)---5----1----|--1----3----3--------|--3----(3/5)---5--------|

10                      11                        12
|----------------------|-------------------------|---------------------|
|----------------------|-------------------------|---------------------|
|----------------------|-------------------------|---------------------|
|----------------------|-------------------------|---------------------|
|--(7)--------2--------|--5----(5/7)---7----3----|--3----5----5--------|
|--(5)--------0--------|--3----(3/5)---5----1----|--1----3----3--------|

13                        14                     15
|------------------------|----------------------|-------------------------|
|------------------------|----------------------|-------------------------|
|------------------------|----------------------|-------------------------|
|------------------------|----------------------|-------------------------|
|--5----(5/7)---7--------|--(7)--------2--------|--5----(5/7)---7----3----|
|--3----(3/5)---5--------|--(5)--------0--------|--3----(3/5)---5----1----|

16
|---------------------||
|---------------------||
|---------------------||
|---------------------||
|--3----5----5--------||
|--1----3----3--------||



================================================================================
Riff 2a: Guitar 1 (Play 4 times) [Tempo = 65 BPM]
================================================================================


||-------------------|----------------------|-------------------|
||-------------------|----------------------|-------------------|
||-------------------|----------------------|-------------------|
||--2----------------|--2----7----7----5----|--5----------------|
||--2----------------|--2----5----5----3----|--3----------------|
||--0----------------|--0-------------------|-------------------|


|------------------------|-------------------|------------------------|
|------------------------|-------------------|------------------------|
|------------------------|-------------------|------------------------|
|--(5)----5----5----4----|--4----------------|--(4)----4----4---------|
|--(3)----3----3----2----|--2----------------|--(2)----2----2----2----|
|------------------------|-------------------|-------------------0----|
                                                                ...

|-------------------|----------------------|-------------------------|
|-------------------|----------------------|-------------------------|
|-------------------|----------------------|-------------------------|
|--2----------------|--2----7----7----5----|--5--------(5/7)-5----4--|
|--2----------------|--2----5----5----3----|--3----------------------|
|--0----------------|--0-------------------|-------------------------|


|--------------------|-----------------------------|---------------------| |
|--------------------|-----------------------------|---------------------| |
|---------------*----|-----------------------------|---------------------|*|
|--5~~----------4----|--4--------4h5-(4\ 2)--(2/5\ |  4)-----------------|*|
|--------------------|-----------------------------|----------------2----| |
|--------------------|-----------------------------|----------------0----| |
                                                                   ...



* This note is played only on the 3rd repeat; on all other repeats hold the
  5 note for the full duration of the bar



================================================================================
Riff 2b: Guitar 2 (Play 8 times)
================================================================================


||-------------------|----------------------|-------------------|
||-------------------|----------------------|-------------------|
||-------------------|----------------------|-------------------|
||--2----------------|--2----7----7----5----|--5----------------|
||--2----------------|--2----5----5----3----|--3----------------|
||--0----------------|--0-------------------|-------------------|


|------------------------|-------------------|------------------------| |
|------------------------|-------------------|------------------------| |
|------------------------|-------------------|------------------------|*|
|--(5)----5----5----4----|--4----------------|--(4)----4----4---------|*|
|--(3)----3----3----2----|--2----------------|--(2)----2----2----2----| |
|------------------------|-------------------|-------------------0----| |
                                                                ...



After riffs 2a and 2b are completed, both guitars hold the following chord for
2 bars:


||---------||
||---------||
||---------||
||--2------||
||--2------||
||--0------||



================================================================================
Lead riff 1: Guitar 3 with heavy distoriton (Play once) [Tempo = 70 BPM]
================================================================================


||----------------------||-----------------------------|
||--R-              ----||-----------------------------|
||--E-              ----||-----------------------------|
||--S-              ----||-----------------------------|
||--T-              -2--||--(2)/7---7\-2-3-2----2--0-2-|
||----------------------||-----------------------------|


|------------------------------|--------------------------|
|------------------------------|--------------------------|
|------------------------------|--------------------------|
|----------2-------------------|--------------------------|
|--3----3----3-(2/ 3)--(3/ 5)--|--7----7\-2-3-2----2--0-2-|
|------------------------------|--------------------------|


|----------------------------||
|----------------------------||
|----------------------------||
|----------2-----------------||
|--3----3----3-(2/ 3)--------||
|----------------------3--2--||



================================================================================
Riff 3: Guitars 1 & 2 (Play 3 times)
================================================================================


                                                                 |__3__|
||---------------------| |-----------------------|-------------------------| |
||---------------------| |-----------------------|-------------------------| |
||---------------------|/|-----------------------|-------------------------|*|
||--(2)----------------|/|--(2)----2----4--------|--5----------------------|*|
||--(2)----------------| |--(2)----2----2--------|--3--------7-------------| |
||--(0)----------------| |--(0)----0-------------|-----------5----3--3--2--| |
                                                                 .........



This riff enters alongside Lead Riff 1.  The first bar indicates the beginning
of the lead riff, and is ignored after the first repeat.  The ghost notes in bar
2 become ordinary notes after the first repeat.

Guitar 2 repeats this riff only twice, after which the last repeat is replaced
with the supplement:



        --------------
        | Supplement |
        --------------

        ||--------------------|--------------------------||
        ||--------------------|--------------------------||
        ||--------------------|--------------------------||
        ||--2--------4--------|--5--------2--------------||
        ||--2--------2--------|--3--------0----2h3-(3/5)-||
        ||--0-----------------|--------------------------||



================================================================================
Riff 4: Guitar 2 (Play once while guitar 1 plays riff 3 twice)
================================================================================


                                                  |__3___|
||--------------------------|-------------------------------|
||--------------------------|-------------------------------|
||--------------------------|-------------------------------|
||--------------------------|----------2--------------------|
||--7----7\-2-3-2----2--0-2-|--3----3----3-2--3--(3/ 5)--5--|
||--------------------------|-------------------------------|

                                                 |__3___|
|--------------------------|-------------------------------||
|--------------------------|-------------------------------||
|--------------------------|-------------------------------||
|--------------------------|----------2--------------------||
|--7----7\-2-3-2----2--0-2-|--3----3----3-2--3--(2/ 3)--3/ ||
|--------------------------|-------------------------------||



================================================================================
Riff 5: Guitars 1 & 2 (Play 4 times)
================================================================================


||---------------------------|--------------------------------| |
||---------------------------|--------------------------------| |
||---------------------------|--------------------------------|*|
||--9----9\-4--5----5--(4/5)-|--(5/7)---7\-4--4---------------|*|
||--7----7\-2--3----3--(2/3)-|--(3/5)---5\-2--2--2-5-5-4-44-2-| |
||---------------------------|-------------------0-3-3-2-22-0-| |
                                                 .............



================================================================================
Lead Riff 2: Guitar 1 (Play once while guitar 2 plays riff 5 four times)
================================================================================


1
||------------------------------|
||------------------------------|
||-------------7----------------|
||--7--9--9------10-9--10--9-10-|
||------------------------------|
||------------------------------|

2                       |_3__|         |_3_|   3
|---------------------------------------------|---------------------------|
|---------------------------------------------|---------------------------|
|---------------------------------------------|---------------------------|
|--9h10p(9\7)-7----9-10-9h10p9-7-5-4-5-4h5p4--|--2----2-4--5-4--5-5---4-5-|
|---------------------------------------------|---------------------------|
|---------------------------------------------|---------------------------|

4                                     5
|------------------------------------|------------------------------|
|------------------------------------|------------------------------|
|------------------------------------|-------------7----------------|
|--(5/7)\4-4---4-5-7-9-10-9h10-9-7-5-|--7--9--9------10-9--10--9-10-|
|------------------------------------|------------------------------|
|------------------------------------|------------------------------|

6                       |_3__|         |_3_|   7
|---------------------------------------------|---------------------------|
|---------------------------------------------|---------------------------|
|---------------------------------------------|---------------------------|
|--9h10p(9\7)-7----9-10-9h10p9-7-5-4-5-4h5p4--|--2----2-4--5-4--5-5---4-5-|
|---------------------------------------------|---------------------------|
|---------------------------------------------|---------------------------|

8
|-----------------------------| |
|-----------------------------| |
|-----------------------------|*|
|--(5/7)\4-4---4-5-7-5-4------|*|
|------------------------5----| |
|-----------------------------| |



================================================================================
Riff 6: Guitar 2 (Play once while guitar 1 plays riff 3 four times)
================================================================================


                                                  |__3___|
||--------------------------|-------------------------------|
||--------------------------|-------------------------------|
||--------------------------|-------------------------------|
||--------------------------|----------2--------------------|
||--7----7\-2-3-2----2--0-2-|--3----3----3-2--3--(3/ 5)--5--|
||--------------------------|-------------------------------|

|--------------------------|--------------------------------|
|--------------------------|--------------------------------|
|--------------------------|--------------------------------|
|--------------------------|----------2---------------------|
|--7----7\-2-3-2----2--0-2-|--3----3----3-2--3--(2/3)-(3/5)-|
|--------------------------|--------------------------------|


|--------------------------|--------------------------------|
|--------------------------|--------------------------------|
|--------------------------|--------------------------------|
|--------------------------|----------2---------------------|
|--7----7\-2-3-2----2--0-2-|--3----3----3-2--3--(2/3)-(3/5)-|
|--------------------------|--------------------------------|

                                                   |__3__|
|--------------------------|--------------------------------||
|--------------------------|--------------------------------||
|--------------------------|--------------------------------||
|--------------------------|----------2---------------------||
|--7----7\-2-3-2----2--0-2-|--3----3----3-2--(2/3)-3--5--5--||
|--------------------------|--------------------------------||
                                                  .........



================================================================================
Play riff 2a 4 times + 2b 8 times, ending the riff(s) on the following chord:
================================================================================


||---------||
||---------||
||---------||
||--2------||
||--2------||
||--0------||



Hold for 2 bars



================================================================================
Riff 7a: Guitar 4 with mildly overdriven tone (Play twice) [Tempo = 40 BPM]
================================================================================


* Let ring wherever possible *

| |----------------------|----------------------|----------------------|
| |----------------------|----------------------|----------------------|
|3|----------------------|----------------------|----------------------|
|/|-----2--2------2--2---|-----2--2-------0-----|-----2--2------2--2---|
|4|--0-------0-3-------3-|--2-------2---2----2--|--0-------0-3-------3-|
| |----------------------|------------3---------|----------------------|


|----------------------|----------------------|
|----------------------|----------------------|
|----------------------|----------------------|
|-----2--2-------0-----|-----2--2------2--2---|
|--2-------2---2----2--|--0-------0-3-------3-|
|------------3---------|----------------------|

               |_2_|
|--------------------------------| |
|--------------------------------| |
|--------------------------------|*|
|-----4----4-5-4h5p4---4-5-(5/7)-|*|
|--2-----2-----------5-----------| |
|--------------------------------| |



================================================================================
Riff 7b: Guitar 2 (Play twice)
================================================================================


||------------------|------------------|------------------|
||------------------|------------------|------------------|
||------------------|------------------|------------------|
||------------------|------------------|------------------|
||--0-----0-3-----3-|--2-----2---------|--0-----0-3-----3-|
||------------------|----------3----3--|------------------|

                                                   |_3_|
|------------------|------------------|------------------------------| |
|------------------|------------------|------------------------------| |
|------------------|------------------|------------------------------|*|
|------------------|------------------|--------4-5-4h5p4---4-5-(5/7)-|*|
|--2-----2---------|--0-----0-3-----3-|--2---------------5-----------| |
|----------3----3--|------------------|------------------------------| |



================================================================================
Lead Riff 3: Guitar 1 (Play once while guitar 1 plays riff 8) [Tempo = 45 BPM]
================================================================================


1            |_3__|                2//        Let Ring        \\
||--------------------------------|----------------------------|
||--------------------------------|----------------------------|
||--------------------------------|-----9----------------------|
||--7-----10-9h10p9-9------9-9----|-------9-------10---10---10-|
||-----0------------10--10-----10-|--7------7-7-8----8----8----|
||--------------------------------|----------------------------|

3          |_3__|                4//        Let Ring        \\
|-------------------------------|------------------------------|
|-------------------------------|-------------------10---------|
|-------------------------------|----9-----------------10------|
|--7-----0-9h10p9-9------9----0-|------9---9-----10---------10-|
|--0--0-----------10--10---10-0-|--7-----7---7-8----------8-8--|
|-------------------------------|------------------------------|

5          |_3__|                6//        Let Ring        \\
|-------------------------------|-----------------------------|
|-------------------------------|-----------------------------|
|-------------------------------|----9--------------10--------|
|--7-(7)-7-9h10p9-9------9----0-|------9---9-----10----10-----|
|--0--0-(0)-------10--10---10-0-|--7-----7---7-8----------8-7-|
|-------------------------------|-----------------------------|

7         |_3__|                8//        Let Ring        \\
|------------------------------|-----------------------------|
|------------------------------|-----------------------------|
|------------------------------|----9--------------10--------|
|--7----0-9h10p9-9------9----0-|------9---9-----10----10-----|
|--0-------------10--10---10-0-|--7-----7---7-8----------8-7-|
|------------------------------|-----------------------------|

9                    10                     11
|-------------------|----------------------|-------------------|
|-------------------|----------------------|-------------------|
|-------------------|----------------------|-------------------|
|--7--7-------------|----------------------|--5-7--------------|
|--0-------5-7----3-|--2---5-3-2-3-----(3)/|----------5-7----3-|
|-------------------|----------------------|-------------------|

12                              13                     14
|------------------------------|----------------------|----------------------|
|------------------------------|----------------------|----------------------|
|------------------------------|----------------------|----------------------|
|------------------------------|--5h7----(7)\---------|----------------------|
|--2---5-3-2-(2/3)-(3/5)-(5/7)-|-------------5-7----3-|--2---5-3-2-3-----(3)/|
|------------------------------|----------------------|----------------------|

15                    16
|--------------------|------------------|
|--------------------|------------------|
|--------------------|------------------|
|--5h7---7\----------|------------------|
|-----------5-7----3-|--2---0-2--3------|
|--------------------|------------------|

17                                     18
|-------------------------------------|---------------------|
|-------------------------------------|---------------------|
|-------------------------------------|---------------------|
|--7---7-9-10-10h12p(10\9)----12-10-9-|--9--10--9\-9--7---6-|
|--------------------------10---------|---------------------|
|-------------------------------------|---------------------|

19                                      20        |__3___|
|--------------------------------------|-------------------------------------|
|--------------------------------------|-------------------------------------|
|--------------------------------------|-------------------------------------|
|--7----7-9-10-10h12p(10\9)----12-10-9-|--(10/14)-12h14p12-10-9-12-10--9-----|
|-----0---------------------10---------|---------------------------------10--|
|--------------------------------------|-------------------------------------|
     ...
21                                      22
|--------------------------------------|---------------------------------------|
|--------------------------------------|---------------------------------------|
|--------------------------------------|---------------------------------------|
|--7----7-9-10-10h12p(10\9)----12-10-9-|--(9/10)-(10/12)-(12/15)-15-14-15~-14\-|
|-----0---------------------10---------|---------------------------------------|
|--------------------------------------|---------------------------------------|
     ...
23                                      24
|--------------------------------------|--------------------|
|--------------------------------------|--------------------|
|--------------------------------------|--------------------|
|--7----7-9-10-10h12p(10\9)----12-10-9-|--10--9--7\-7----5--|
|-----0---------------------10---------|--------------------|
|--------------------------------------|--------------------|
     ...
25
|-------------------||
|-------------------||
|-------------------||
|--7----------------||
|-------------------||
|-------------------||



At bar 9 the tempo increases slightly to 50 BPM



================================================================================
Riff 8: Guitar 2 (Play 12 times, ending with the supplement)
================================================================================


||----------------|---------------------| |
||----------------|---------------------| |
||--2-------------|---------------------|*|
||--2------5------|--2------3-----------|*|
||--0------5------|--2------3-3-3-3-3-3-| |
||---------3------|--0------1-1-1-1-1-1-| |
                              .........



        --------------
        | Supplement |
        --------------

        ||----------------||
        ||----------------||
        ||----------------||
        ||----------------||
        ||--0-2-----------||
        ||----------------||



================================================================================
End
================================================================================


Tab summary:        Intro x 2
                    Riff 1a x 2 + Riff 1b x 1
                    Riff 2a x 4 + Riff 2b x 8
                    Lead Riff 1 x 1 + Riff 3 x 3
                    Riff 4 x 1 + Riff 3 x 2
                    Riff 5 x 4
                    Lead Riff 2 x 1 + Riff 5 x 4
                    Riff 6 x 1 + Riff 3 x 4
                    Riff 2a x 4 + Riff 2b x 8
                    Riff 7a + 7b x 2
                    Lead Riff 3 x 1 + Riff 8 x 12

                    END

  Visit MetalTabs.com for more metal tablature

bottom separator

Contact Us | Privacy Policy | Disclaimer | Legal Notice
Copyright © 2001-2014 MetalTabs.com. All Rights Reserved.