top separator

Home

Forum

What's New

Submit a Tab

FAQ

Links

Contact Us

Link to Us

MuSpy.com

MetalTabs.com logo

Bands

0-9

A

B

C

D

E

F

G

H

I

J

K

L

M

N

O

P

Q

R

S

T

U

V

W

X

Y

Z

Search

What

Where
 

Cadaveria - "Call Me (Blondie Cover)" Guitar Tab

Plain Text Version
More Cadaveria Tabs

Hits: 10214
Updated: 2005-10-04 21:31:01

 

By:

Daniil

sendpm.gif

email.gif

Important note
This tab is available online because we obtained explicit permission from Cadaveria or their label.


#----------------------------------PLEASE NOTE---------------------------------#
#This file is the author's own work and represents their interpretation of the #
#song. You may only use this file for private study, scholarship, or research. #
#Unless specified otherwise, this is NOT an official tab from the band members.#
#------------------------------------------------------------------------------#

  Visit MetalTabs.com for more metal tablature
  
CADAVERIA-Call Me (Blondie cover)
Far Away From Conformity-2004
Copyright Scarlet Records
Transcribed by Daniil Laletin
e-mail: dlaletin@mail.ru
version 1.0 July 2005

All corrections are welcome.

 " - tremolo
 / - slide down
 \ - slide up
 . - palm mute
 ~ - long sound
 x - rest
 p - pull off
 h - hammer on
 tr - trill
 () - ghost note, sustained note
 * - artificial harmonics
 b - bend


Tuning from low to high: B E A D F# B
=====================================

 Riff 1a
|---------------------------------------------------|
|---------------------------------------------------|
|----------------------6-4----------------------4---|
|-6------6------6------4-2-6------6------6------2-4-|
|-4--444-4--444-4--444-----4--444-4--444-4--444---2-|
|----...----...----...--------...----...----...-----|


 Riff 2
|----------------|
|----------------|
|-6~-------------|
|-6~------2~-----|x2
|-4~------4~-----|
|---------5~-----|

|----------------------------------------|
|----------------------------------------|
|----------------------------------------|
|----------------------------------------|
|-444444444444-666666666666-444444444444-|
|-222222222222-444444444444-222222222222-|
  ............ ............ ............
|--------------------------|
|--------------------------|
|--------------------------|
|--------------------------|
|-666666666666666666666666-|
|-444444444444444444444444-|
  ........................


 Riff 3
|----------------------------------------------------------------|
|------------------------------7-7-77-7-7--x-10-10-1010-10-10--x-|
|-6-6--66-6-6--x-9-9-99-9-9--x-6-6-66-6-6--x--9--9--9-9--9--9--x-|
|-6-6--66-6-6--x-9-9-99-9-9--x-4-4-44-4-4--x--7--7--7-7--7--7--x-|
|-4-4--44-4-4--x-7-7-77-7-7--x-----..---------------.-.----------|
|------..------------..------------------------------------------|


 Riff 1b
|---------------------------------------------------|
|---------------------------------------------------|
|----------------------6-4----------------------8-6-|
|-6------6------6------4-2-8------8------8------6-4-|
|-4--444-4--444-4--444-----6--666-6--666-6--666-----|
|----...----...----...--------...----...----...-----|


 Riff 4
|---------------------------------------------------|
|---------------------------------------------------|
|---------------------------------------------------|
|-888888888888888888888888--------------------------|x2
|-666666666666666666666666-888888888888888888888888-|
|-........................-666666666666666666666666-|
                           ........................
|---------------------------------------------------|
|---------------------------------------------------|
|---------------------------------------------------|
|-999999999999999999999999--------------------------|
|-777777777777777777777777-999999999999999999999999-|
|-........................-777777777777777777777777-|
                           ........................
|---------------------------------------------------|
|---------------------------------------------------|
|---------------------------------------------------|
|-666666666666666666666666--------------------------|
|-444444444444444444444444-777777777777777777777777-|
|-........................-555555555555555555555555-|
                           ........................
|---------------------------------------------------|
|---------------------------------------------------|
|---------------------------------------------------|
|---------------------------------------------------|
|-444444444444444444444444-666666666666666666666666-|
|-222222222222222222222222-444444444444444444444444-|
  ........................ ........................



 Solo over Riff 4
|-12~----12h14-15~--15h17h19~--22-21-22-19-15-11~---|
|---------------------------------------------------|
|---------------------------------------------------|
|---------------------------------------------------|
|---------------------------------------------------|
|---------------------------------------------------|

|-11-12-14~---------------------|
|-------------12-11-11tr12~~----|
|-------------------------------|
|-------------------------------|
|-------------------------------|
|-------------------------------|

|---------------------------------11-10-11~---|
|----------------------11-10-11~--------------|
|-8-7-8~--/11-10-11~--------------------------|
|---------------------------------------------|
|---------------------------------------------|
|---------------------------------------------|

|-11-13-14-13~----16-13---------------------|
|--.--.--.--------------15-12---------------|
|-----------------------------13-10---------|
|-----------------------------------12~~----|
|-------------------------------------------|
|-------------------------------------------|

|----------------16\11~--11\9~--9/11~--11~~~----|
|-9~~~~~~bend-----------------------------------|
|-----------------------------------------------|
|-----------------------------------------------|
|-----------------------------------------------|
|-----------------------------------------------|

|-----------------------------7"-----9"-7"-11"-|
|----------7"----9"-7"-10"-9"----10"-----------|
|-6"-9"-8"----9"-------------------------------|
|----------------------------------------------|
|----------------------------------------------|
|----------------------------------------------|

|-9"-12"-11"-14"-12"-16"-14"-19"-21~~~---20~~~~~----|
|---------------------------------------------------|
|---------------------------------------------------|
|---------------------------------------------------|
|---------------------------------------------------|
|---------------------------------------------------|


 Riff 5
|-----------------------------------------------------|
|-----------------------------------------------------|
|---------------------------666666666666-888888888888-|
|-666666666666-888888888888-444444444444-666666666666-|
|-444444444444-666666666666-............-............-|
|-............-............---------------------------|


 Ending chord
|---|
|---|
|---|
|-6-|
|-4-|
|---|

  Visit MetalTabs.com for more metal tablature

bottom separator

Contact Us | Privacy Policy | Disclaimer | Legal Notice
Copyright © 2001-2014 MetalTabs.com. All Rights Reserved.