top separator

Home

Forum

What's New

Submit a Tab

FAQ

Links

Contact Us

Link to Us

MetalTabs.com logo

Bands

0-9

A

B

C

D

E

F

G

H

I

J

K

L

M

N

O

P

Q

R

S

T

U

V

W

X

Y

Z

Search

What

Where
 

Equilibrium - "Der Sturm" Guitar Tab

Plain Text Version
More Equilibrium Tabs

Hits: 7356
Rated: 4.67 out of 5 (3 votes)
Updated: 2005-10-04 21:30:31

 

By:

Theoldman

sendpm.gif

email.gif

Important note
This tab is available online because we obtained explicit permission from Equilibrium or their label.


#----------------------------------PLEASE NOTE---------------------------------#
#This file is the author's own work and represents their interpretation of the #
#song. You may only use this file for private study, scholarship, or research. #
#Unless specified otherwise, this is NOT an official tab from the band members.#
#------------------------------------------------------------------------------#

  Visit MetalTabs.com for more metal tablature
  
Band:  Equilibrium
Album: Turis Fratyr
Song:  Der Sturm

Copyright (c)  Black Attakk 2005
Version 1.0 - 19.9.2005

Transcribed By: Theoldman
Email:          swordbearing@hotmail.com
________________________________________

.  - palm mute           /  - slide up to
\  - slide down to       ~  - vibrato
h  - hammer on           b  - Bend
p  - pull off            Suffixes for bend
t  - tap                 f  - full bend    h - half bend
ph - pinched harmonic    q  - quarter bend t - tap bend
*  - see comment         ^  - Hold bend    r release bend
x  - Stuccatto           ~  - vibrato bend
,  - slight palm mute    () - ghost note, sustained note
"  - tremolo note        <> - Trill

Tuning  B E A D G B

Riff 1 (0:00-0:22)
|-----------------------------------------------------------------|
|-----------------------------------------------------------------|
|6---6---6---6---2---2---2---2---4---4---4---4---6---6---6---6----|
|4-444-444-444-440-000-000-000-002-222-222-222-224-444-444-444-44-|
|-----------------------------------------------------------------|
|-----------------------------------------------------------------|



Riff 2 (0:23-0:44)
|----------------|----------------|----------------|----------------|
|----------------|----------------|----------------|----------------|
|----------------|----------------|----------------|----------------|
|2-------2-------|----------------|----------------|6-------6---9---|
|0---0-0-0---0-0-|2-------2-------|4-------4-------|4---4-4-4---7---|
|----------------|0---0-0-0---0-0-|2---2-2-2---2-2-|----------------|
 .   . .     . .  .   . .     . .  .   . .     . .  .   . .
|----------------|----------------|----------------|----------------|
|----------------|----------------|----------------|----------------|
|----------------|4-------4-------|6-------6-------|2-------4-------|
|7-------7-------|2---2-2-2---2-2-|4---4-4-4---4-4-|0-------2-------|
|5---5-5-5---5-5-|----------------|----------------|----------------|
|----------------|----------------|----------------|----------------|
 .   . .     . .  .   . .     . .  .   . .     . .



Riff 1 (0:45-1:07)

Riff 2 (1:08-1:29)

Riff 1 (1:30-2:03) (under solo)



Solo 1 (1:30-2:15) (you need highest E in this solo)
|12f--12--------|--------------|---------------|-----------------------------|E
|--------14-----|---12-10-12---|12---10-12--10-|---1012141210----1012141210--|B
|---------------|--------------|---------------|--9----------9--9----------9-|G
|---------------|--------------|---------------|11------------11-------------|D
|---------------|--------------|---------------|-----------------------------|A
|---------------|--------------|---------------|-----------------------------|E

|------12------12------12------|---------------------12-|
|101214--101214--101214--14-12-|12-14-12-------12-14----|
|------------------------------|---------14-11----------|
|------------------------------|------------------------|
|------------------------------|------------------------|
|------------------------------|------------------------|

|1211--111211--111211--111211--11-|-----------------------|
|----14------14------14------14---|12/14-12---------12-14-|
|---------------------------------|---------14---14-------|
|---------------------------------|-----------------------|
|---------------------------------|-----------------------|
|---------------------------------|-----------------------|

|-------------1414-------------------|14141414----------1414141414141414-|
|141414141414------12121212-14141414-|---------12121212------------------|
|------------------------------------|-----------------------------------|
|(1:41)------------------------------|-----------------------------------|
|------------------------------------|-----------------------------------|
|------------------------------------|-----------------------------------|

|12121212-11111111-9------------|9f--9f--11-9-------|
|------------------------12-----|-------------12----|
|-------------------------------|----------------11-|
|-------------------------------|-------------------|
|-------------------------------|-------------------|
|-------------------------------|-------------------|

|--------------|--------9----|--------------|--------9-----|
|10f---101210--|14f---12-12--|10f---101210--|15f---12-12---|
|------------11|-----------14|------------11|-----------14-|
|--------------|-------------|--------------|--------------|
|--------------|-------------|--------------|--------------|
|--------------|-------------|--------------|--------------|

|-------------------------------|------------------------------|
|10-----------------------------|---------------------------10-|
|--9----------------------------|------------9------9------9---|
|---11----11------11------11----|--11------11-11--11-11--11----|
|-----1214--141214--141214--1412|14--141214-----14-----14------|
|-------------------------------|------------------------------|

|----------12---12----12-|----------12---12----12-|
|12-1212-----------12----|12-1212-----------12----|
|-------14---------------|-------14---------------|
|------------------------|------------------------|
|(1:53)------------------|------------------------|
|------------------------|------------------------|

|---------14---14----14-|---------12-14-12------|
|12-12------------12----|12-12-------------12\9-|
|------14---------------|------14---------------|
|-----------------------|-----------------------|
|-----------------------|-----------------------|
|-----------------------|-----------------------|

|--------------|------------------------------|
|12------------|---------------------------10-|
|--------13----|------------9------9------9---|
|-----------11-|--11------11-11--11-11--11----|
|--------------|14--141214-----14-----14------|
|--------------|------------------------------|

|----------------------|-------14---14----14-|
|12---10-12-14-12---10-|14--12---------12----|
|---9-------------9----|---------------------|
|----------------------|---------------------|
|----------------------|---------------------|
|----------------------|---------------------|

|14/16-16---------|161412-11-------------------|
|-----------------|---------1412---------------|
|(2:04)-----------|--------------141311--------|
|-----------------|---------------------1411---|
|-----------------|-------------------------14-|
|-----------------|----------------------------|

|-------------------------------------------------------------------|
|-------------------------------------------------------------------|
|18------------17---15------------13------11---13---6---------------|
|-------------------------------------------------------------------|
|-------------------------------------------------------------------|
|-------------------------------------------------------------------|



Riff 3 (2:04-2:15) (under solo)
|---------------------------------------------------|
|---------------------------------------------------|
|---------------------------------------------------|
|2--------------------------------------------------|
|0------------2------------4------------------------|
|-------------0------------2------------------------|



Riff 4 (2:18-2:28)
|----------------|----------------|----------------|----------------|
|----------------|----------------|----------------|----------------|
|----------------|----------------|----------------|----------------|
|----------------|----------------|----------------|----------------|
|4-------4-------|4-------4-------|4-------4-------|4-------7\6-7---|
|2---2-2-2---2-2-|2---2-2-2---2-2-|2---2-2-2---2-2-|2---2-2-5\4-5---|
 .   . .     . .  .   . .     . .  .   . .     . .  .   . .



Riff 5 (2:29-2:34)
|----------------|----------------|----------------|----------------|
|----------------|----------------|----------------|----------------|
|----------------|----------------|----------------|----------------|
|2-------2-------|----------------|----------------|----------------|
|0---0-0-0---0-0-|2-------2-------|4-------4---2---|4---------------|
|----------------|0---0-0-0---0-0-|2---2-2-2---0---|2---------------|
 .   . .     . .  .   . .     . .  .   . .



Riff 1 (2:35-2:56)



Riff 6 (2:57-3:08)
|-------------------------------------------------------------------|
|-------------------------------------------------------------------|
|6---4--------------------------------------------------------------|
|4---2---4---7------------------------------------------------------|
|--------2---5---4--------------------------------------------------|
|----------------2--------------------------------------------------|



END

  Visit MetalTabs.com for more metal tablature

bottom separator

Contact Us | Privacy Policy | Disclaimer | Legal Notice
Copyright © 2001-2014 MetalTabs.com. All Rights Reserved.