top separator

Home

Forum

What's New

Submit a Tab

FAQ

Links

Contact Us

Link to Us

MuSpy.com

MetalTabs.com logo

Bands

0-9

A

B

C

D

E

F

G

H

I

J

K

L

M

N

O

P

Q

R

S

T

U

V

W

X

Y

Z

Search

What

Where
 

Katatonia - "Passing bird" Guitar Tab

Plain Text Version
More Katatonia Tabs

Hits: 5152
Rated: 2.00 out of 5 (1 vote)
Updated: 2005-10-04 21:30:23

 

By:

sendpm.gif

email.gif

Important note
This tab is available online because we obtained explicit permission from Katatonia or their label.


#----------------------------------PLEASE NOTE---------------------------------#
#This file is the author's own work and represents their interpretation of the #
#song. You may only use this file for private study, scholarship, or research. #
#Unless specified otherwise, this is NOT an official tab from the band members.#
#------------------------------------------------------------------------------#

  Visit MetalTabs.com for more metal tablature
  
KATATONIA
LAST FAIR DEAL GONE DOWN
PASSING BIRD
tabbed by slaughterlord
slaught3rlord@yahoo.gr


tuning D G C F A D



Riff 1-A
|--------------------------------------------------------|
|--------------------------------------------------------|
|--10--10--10-10-8----------8/10--10--10-10-8-9----------|gtr
|---8---8---8--8-6-10-11-10-6/8----8---8--8-6-7-11-10----| 1
|-------------------8--9--8----------------------9--8----|
|--------------------------------------------------------|


|---12/13-------------------------------|
|----------15-14--12--------------------|
|--------------------13-14-13b14--------|gtr
|--------------------------------11-----| 2
|---------------------------------------|
|---------------------------------------|



Riff 1-B
only gtr 1 from riff 1-A



Riff 2
|-------------------------------------------|
|-------------------------------------------|
|---11-----10-----11-----11-----------------|gtr
|----11-----10-----11-----10--------8-10----| 1
|------9------8------9------8-----7---------|
|-------------------------------8-----------|



Riff 3
|----------------------------------------------------|
|----------------------------------------------------|
|----------------------------------------------------|gtr
|---------------5\3---3---3-3-3/4---4----4-4-4-3-4---| 1
|---3---3---3-3-3\1---1---1-1-1/4---4----4-4-4-3-4---|
|---1---1---1-1--------------------------------------|

|-------------------------------------------------|
|-------------------------------------------------|
|-------------------------------------------------|gtr
|---------------5\3---3---3-3-3---4---4---4---4---| 1
|---3---3---3-3-3\1---1---1-1-1---4---4---4---4---|
|---1---1---1-1-------------------1---1---1---1---|

|----------------------------------------------------|
|----------------------------------------------------|
|----------------------------------------------------|gtr
|---------------5\3---3---3-3-3/4---4----4-4-4-3-4---| 1
|---3---3---3-3-3\1---1---1-1-1/4---4----4-4-4-3-4---|
|---1---1---1-1--------------------------------------|

|-----------------------------------|
|-----------------------------------|
|-----------------------------------|gtr
|---------------5\3---3---3-3-3/4---| 1
|---3---3---3-3-3\1---1---1-1-1/4---|
|---1---1---1-1---------------------|


gtr 2 plays some weird stuff might be this
|----------------------------------------------|
|-------------------------6/7-7-7--------------|
|---5-3-3-3-5/6-6-5-6-5-6---------8-8-6-6-5----|gtr
|----------------------------------------------| 2
|----------------------------------------------|(lots of effects)
|----------------------------------------------|


Riff 1-B



Riff 2



Riff 3



Riff 4
|----------------------------------|
|-------4------3------3------------|
|-------5------4------4------------|gtr
|-----5------5------5--------------| 1
|---3------3------3-----2b3--------|
|---------------------------5b6----|


|----------------------------------------|
|---------4--------3---------------------|
|-------5------5-4------5-4-5------------|gtr
|-----5----------------------------------| 2
|---3--------3--------3--------2b3-------|
|----------------------------------5b6---|


Riff 5
|--------|
|--------|
|---3----|gtr
|---3----| 1
|---1----|
|--------|


|---7-8-7-8-7-8-7-8-7-8-8-----|
|---(------tapping------)-----|
|-----------------------------|gtr
|-----------------------------| 2
|-----------------------------|
|-----------------------------|


Riff 3

End.

  Visit MetalTabs.com for more metal tablature

bottom separator

Contact Us | Privacy Policy | Disclaimer | Legal Notice
Copyright © 2001-2014 MetalTabs.com. All Rights Reserved.