top separator

Home

Forum

What's New

Submit a Tab

FAQ

Links

Contact Us

Link to Us

MetalTabs.com logo

Bands

0-9

A

B

C

D

E

F

G

H

I

J

K

L

M

N

O

P

Q

R

S

T

U

V

W

X

Y

Z

Search

What

Where
 

Dying Fetus - "Reduced To Slavery *" Guitar Tab

Plain Text Version
More Dying Fetus Tabs

Hits: 4757
Rated: 5.00 out of 5 (2 votes)
Updated: 2005-10-04 21:30:08

 

By:

ThongPick

sendpm.gif

email.gif

Co-authored by:

Yura

sendpm.gif

email.gif

Important note
This tab is available online because we obtained explicit permission from Dying Fetus or their label.


#----------------------------------PLEASE NOTE---------------------------------#
#This file is the author's own work and represents their interpretation of the #
#song. You may only use this file for private study, scholarship, or research. #
#Unless specified otherwise, this is NOT an official tab from the band members.#
#------------------------------------------------------------------------------#

  Visit MetalTabs.com for more metal tablature
  
Band:  Dying Fetus
Album: Destroy the Opposition
Song:  Reduced To Slavery

Copyright (c)  Blunt Force Records (2000)
Version 1.0  September 12, 2005

Transcribed By: Yura Kowalchuk
E-mail: yura_kowalchuk@mail.ru]
www.blood-scrapes.nm.ru

Revised by: Nicolas Rouleau
E-mail: insineratemail@hotmail.com


.   - Palm mute                      b  - Bend
\   - Slide down to                  Suffixes for bend
/   - Slide up to                    f  - full bend
~   - Vibrato                        h  - half bend
h   - Hammer on                      q  - quarter bend
p   - Pull off                       ^  - Hold bend
tr   Trill                          r  - release bend
t   - Tap                            "  - tremolo
[]  - Pinched harmonic
<>  - Natural harmonic
()  - Ghost note, sustained note
*   - See comments

Tunning C# F# B E G# C#


 Intro
|----------------|
|----------------|
|----------------|
|----------------|
|-5-4---5-4---5--|
|-3-2-0-3-2-0-3--|
  . . . . . . .

 Riff 1A
|----------------------------------------------------|
|----------------------------------------------------|
|----------------------------------------------------|
|-2"--3"2"-0"-2"--------2"--3"2"---------------------|
|---------------3"-2"-----------[3]~-5-4---5-4---5-4-|
|---------------------3"-------------3-2-0-3-2-0-3-2-|
                                     . . . . . . . .

 Riff 1B
|--------------------------------------------------|
|--------------------------------------------------|
|--------------------------------------------------|
|-2"--3"2"-0"-2"--------2"--3"2"-------------------|
|---------------3"-2"-----------[3]~-5-4---5-4---5-|
|---------------------3"-------------3-2-0-3-2-0-3-|
                                     . . . . . . .

 Riff 2A
|---------------------------------|---------------------------------|
|---------------------------------|---------------------------------|
|---------------------------------|---------------------------------|
|-------------------------9-107-9-|-------------------------5---5/7-|
|-------------------------7-8-5-7-|-------------------------3---3/5-|
|---------------------------------|---------------------------0-----|
                          . . . .                             .

 Riff 2B
|---------------------------------|---------------------------------|
|---------------------------------|---------------------------------|
|---------------------------------|---------------------------------|
|-------------------------9-107-9-|-------------------------5---5/7-|
|---5-4---8-7---4---5-4---7-8-5-7-|---5-4---8-7---4---5-4---3---3/5-|
|-0-3-2-0-6-5-0-2-0-3-2-0---------|-0-3-2-0-6-5-0-2-0-3-2-0---0-----|
  . . . . . . . . . . . . . . . .   . . . . . . . . . . . .   .

 Riff 3
|---------------------------------|------------------------------|
|---------------------------------|------------------------------|
|---------------------------------|------------------------------|
|---------------------------------|------------------------------|
|-----[2]/[3]-4343-8\7---7----7\6-|-----[2]/[3]-4343-8----7----6-|
|-000---------2121-6\5-0-5--0-5\4-|-000---------2121-6--0-5--0-4-|
  ...         ....     .    .       ...         ....    .    .

 Riff 4
|---------------------------------|
|---------------------------------|
|---------------------------------|
|---------------------------------|
|---------------------------------|
|-000-000-0-000-0-000-0-0-0-0-0-0-|
  ... ... . ... . ... . . . . . .

 Ending 1                         Ending 2
|--------------------------------|------------------------------|
|--------------------------------|------------------------------|
|--------------------------------|------------------------------|
|--------------------------------|------------------------------|
|-----------------3/6---6----6\5-|-----------------3----6----6--|
|-000-000-0-000-0-1/4-0-4--0-4\3-|-000-000-0-000-0-1--0-4--0-4--|
  ... ... . ... .     .    .       ... ... . ... .    .    .

 Riff 5
|---------------------------------|
|---------------------------------|
|---------------------------------|
|---------------------------------|
|-2-2-2-2-2-2-2-2-2-2-2-2-2-3-3-3-|
|-0-0-0-0-0-0-0-0-0-0-0-0-0-1-1-1-|
  . . . . . . . . . . . . . . . .

 Ending 1                         Ending 2
|--------------------------------|------------------------------|
|--------------------------------|------------------------------|
|--------------------------------|------------------------------|
|--------------------------------|------------------------------|
|-2-2-2-2-2-2-2-2-3/6---6----6\5-|-2-2-2-2-2-2-2-2-3----6----6--|
|-0-0-0-0-0-0-0-0-1/4-0-4--0-4\3-|-0-0-0-0-0-0-0-0-1--0-4--0-4--|
  . . . . . . . .     .    .       . . . . . . . . .  .    .


 Riff 6
|---------------------------------|---------------------------------|
|---------------------------------|---------------------------------|
|---------------------------------|---------------------------------|
|-----------------3-6-------------|-------------------6-------------|
|---------1-------1-4-7-6-7-8-7-6-|---------1-------7-4-7---5-6-5---|
|-111-2-1---2-1-2-----5-4-5-6-5-4-|-111-2-1---2-1-2-5---5---3-4-3---|
  ... . . . . . . . . . . . . . .   ... . . . . . . . .     . .


 Riff 7A (3x)
|---------------------------------------------------|
|---------------------------------------------------|
|---------------------------------------------------|
|-----------------------------------------------5-4-|
|---3"----2"-3"-2"-7"---6-------3-------5-6-5-6-3-2-|
|-1"--0"----------------4-000-0-1-000-0-3-4-3-4-----|
                          ... .   ... . . . . .

 Riff 7B (1X)
|---------------------------------------------------------|
|---------------------------------------------------------|
|---------------------------------------------------------|
|---------------------------------------------------------|
|---3"----2"-3"-2"-7"---6-------3-------5-6-5-6-3tr6-2tr5-|
|-1"--0"----------------4-000-0-1-000-0-3-4-3-4-----------|
                          ... .   ... . . . . .


 Riff 8              Ending 1           Ending 2
|-------------------|------------------|-------------------|
|-------------------|------------------|-------------------|
|-------------------|------------------|-------------------|
|-------------------|------------------|-----------5-4-----|
|-5-6-5-6-3tr6-2tr5-|-6--------3-------|-3tr6-2tr5-3-2-6-5-|
|-3-4-3-4-----------|-4-000-0--1-000-0-|---------------4-3-|
  . . . .               ... .    ... .             . . . .

 Riff 9A
|---------------------------------|---------------------------------|
|---------------------------------|---------------------------------|
|---------------------------------|---------------------------------|
|---------------------------------|-------------------------4-5-4-5-|
|-6-5-8---6-5-8-------------------|-6-5-8---6-5-8-----------2-3-2-3-|
|-4-3-6---4-3-6---0-0-0-0-000-000-|-4-3-6---4-3-6---000-000---------|
  . .     . .     . . . . ... ...   . .     . .     ... ... . . . .

 Riff 9B
|---------------------------------|--------------------------|
|---------------------------------|--------------------------|
|---------------------------------|----------------Drum-fill-|
|---------------------------------|--------------------------|
|-6-5-8---6-5-8-------------------|-6-5-8---6-5-8------------|
|-4-3-6---4-3-6---0-0-0-0-000-000-|-4-3-6---4-3-6------------|
  . .     . .     . . . . ... ...   . .     . .

 Riff 9C
|---------------------------------|-------------------------------|
|---------------------------------|-------------------------------|
|---------------------------------|-------------------------------|
|---------------------------------|-------------------------4-5-4-|
|-6-5-8---6-5-8-------------------|-6-5-8---6-5-8-----------2-3-2-|
|-4-3-6---4-3-6---0-0-0-0-000-000-|-4-3-6---4-3-6---000-000-------|
  . .     . .     . . . . ... ...   . .     . .     ... ... . . .


END OF SONG

  Visit MetalTabs.com for more metal tablature

bottom separator

Contact Us | Privacy Policy | Disclaimer | Legal Notice
Copyright © 2001-2014 MetalTabs.com. All Rights Reserved.