top separator

Home

Forum

What's New

Submit a Tab

FAQ

Links

Contact Us

Link to Us

MuSpy.com

MetalTabs.com logo

Bands

0-9

A

B

C

D

E

F

G

H

I

J

K

L

M

N

O

P

Q

R

S

T

U

V

W

X

Y

Z

Search

What

Where
 

Sathanas - "NecroLust" Guitar Tab

Plain Text Version
More Sathanas Tabs

Hits: 2041
Updated: 2005-10-04 21:24:42

 

By:

Odin626

sendpm.gif

email.gif

Important note
This tab is available online because we obtained explicit permission from Sathanas or their label.


#----------------------------------PLEASE NOTE---------------------------------#
#This file is the author's own work and represents their interpretation of the #
#song. You may only use this file for private study, scholarship, or research. #
#Unless specified otherwise, this is NOT an official tab from the band members.#
#------------------------------------------------------------------------------#

  Visit MetalTabs.com for more metal tablature
  
Band:  Sathanas
Album: Black Earth
Song:  Necrolust

Copyright (c) Sathanas 1996/Cybertzara 2001
Version 1.0 - 9/17/05

Transcribed By:  Odin626
Email:          Odin626@hotmail.com


.  - palm mute           /  - slide up to
\  - slide down to       ~  - vibrato
h  - hammer on           b  - Bend
p  - pull off            Suffixes for bend
t  - tap                 f  - full bend    h - half bend
ph - pinched harmonic    q  - quarter bend t - tap bend
*  - see comment         ^  - Hold bend    r release bend
x  - Stuccatto           ~  - vibrato bend
,  - slight palm mute    () - ghost note, sustained note
"  - tremolo note        <> - Trill

Tuning Eb Ab Db Gb Bb Eb

Intro:
|----------|
|----------|
|----------|
|----------|
|-5--5-----|
|-3--3-----|

Riff1:
|-----------------------------|
|-----------------------------|
|-----------------------------|
|-----------------------------|
|------5\4-------5\4-------3--|
|0-0-0-3\2-0-0-0-3\2-0-000-1--|
 . . .     . . .     . ...

riff2:
|---------------------------|
|---------------------------|
|---------------------------|
|---------------------------|
|-------7766-------7---777--|
|-0-000-5544-000-0-5-0-999--|
  . ...      ... .   .

transition1
|------------------|
|------------------|
|------------------|
|------------------|
|------7-6-5-------|
|------5-4-3-------|

riff3
|----------------------|
|----------------------|
|----------------------|
|---------------5/6\5--|
|-7-------6-----3/4\3--|
|-5-0-0-0-4-0000-------|
  . . .   ....

riff4:
|--------------|
|-?nottosure?--|
|--------------|
|--------------|
|--7-----5-55\4|
|--5-----3-33\2|

riff5:
|--------------------------------|
|--------------------------------|
|--------------------------------|
|--------------------------------|
|----------------------5-55\4--7-|
|-0-0-0-0-0-0-0-0-0-0--3-33\2--5-|
  . . . . . . . . . .

riff6:
|------------------|
|------------------|
|------------------|
|-------7----------|
|-2-7-6-5-7-6-4\3--|
|-0-5-4---5-4------|
    . .   . .

transition2:
|--------|
|--------|
|--------|
|--------|
|---8--7-|
|---6--5-|

End riff:
|----------------------|
|----------------------|
|----------------------|
|----------------------|
|--8--7--8-55-8\7------|
|--6--5--6-33-6\5------|




riff1   x4
riff2   x3
riff1   x4
riff2   x3
trans1  x1
riff3   x4
riff4   x5
riff5   x4
riff6   x4
trans2  x1
riff1   x4
riff2   x3
trans1
riff3   x3
riff3   x4
riff4   x4
riff5   x4
riff6   x4
endriff x1
END

  Visit MetalTabs.com for more metal tablature

bottom separator

Contact Us | Privacy Policy | Disclaimer | Legal Notice
Copyright © 2001-2014 MetalTabs.com. All Rights Reserved.