top separator

Home

Forum

What's New

Submit a Tab

FAQ

Links

Contact Us

Link to Us

MuSpy.com

MetalTabs.com logo

Bands

0-9

A

B

C

D

E

F

G

H

I

J

K

L

M

N

O

P

Q

R

S

T

U

V

W

X

Y

Z

Search

What

Where
 

Darkest Hour - "The Mark Of Judas" Guitar Tab

Plain Text Version
More Darkest Hour Tabs

Hits: 2193
Updated: 2005-09-28 08:38:29

 

By:

tmfreak

sendpm.gif

email.gif

Important note
This tab is available online because we obtained explicit permission from Darkest Hour or their label.


#----------------------------------PLEASE NOTE---------------------------------#
#This file is the author's own work and represents their interpretation of the #
#song. You may only use this file for private study, scholarship, or research. #
#Unless specified otherwise, this is NOT an official tab from the band members.#
#------------------------------------------------------------------------------#

  Visit MetalTabs.com for more metal tablature
  
Band = Darkest Hour
Album = The Mark of the Judas
Title = The Mark of the judas


Tabbed - Michael Cornwell
Email = Tmfreak@yahoo.com


b=bend
h=hammer
p=pulloff
.=palm mute
/=slide
T=Tap
#.= Staccato notes
~ = vibrato
X = Dead note
p.h. = pinch harmonic

Riff-A

Both Guitars
d|--------|
A|--------|
F|--------|
C|--0-----|
G|--0-----|
C|--0-----|

Guitar 1
d|-------------------------------------------------------|
A|-------------------------------------------------------|
F|-------------------------------------------------------|
C|-------------------------------------------------------|
G|-5-5-5-5-5-5-10-10-8-8-7h8-1-1-1-1-1-3-3-3-5-5-5-------|
C|-------------------------------------------------------|

Guitar 2
d|------------------------------------------------|
A|------------------------------------------------|
F|------------------------------------------------|
C|--0-----------------------------------10--12----| X 1
G|--0-----------------------------------10--12----|
C|--0-----------------------------------10--12----|
Then
Guitar 2
d|------------------------------------------------|
A|------------------------------------------------|
F|--------------------------------------5---7-----|
C|--7-7-7-7-7-7-12-10-8h10-3-3-3-3-3----5---7-----|
G|--------------------------------------3---5-----|
C|------------------------------------------------|


Riff-B

Both Guitars
d|-----------------------------------------------------------|
A|-----------------------------------------------------------|
F|-----------------------------------------------------------|
C|-000-000-000-000-10--8-8-8-8-3-3-3-3-10-10-10-10h12--------| X 2
G|-000-000-000-000-10--8-8-8-8-3-3-3-3-10-10-10-10h12--------|
C|-000-000-000-000-10--8-8-8-8-3-3-3-3-10-10-10-10h12--------|
   ... ... ... ...

Both Guitars
d|------------------------------------------------------|
A|------------------------------------------------------|
F|------------------------------------------------------|
C|-0-0-0-0-0-0-10-8-8-8-8-3-3-3-3-10-10-10-10h12--------|
G|-0-0-0-0-0-0-10-8-8-8-8-3-3-3-3-10-10-10-10h12--------|
C|-0-0-0-0-0-0-10-8-8-8-8-3-3-3-3-10-10-10-10h12--------|

Riff-C

Guitar 1
d|--------------------------------|
A|--------------------------------|
F|--------------------------------|
C|----7-8---7-8----7-8----7-8-----|
G|--5-----5------1-----3----------|
C|--------------------------------|

Guitar 2
d|-------------------------------------|
A|-------------------------------------|
F|--7-------7--------3-------5---------|
C|--7--7-8--7-7-8----3-7-8---5-7-8-----|
G|--5--7-8--5-7-8----1-7-8---3-7-8-----|
C|-------------------------------------|


Repeat
Riff A
Riff B
Riff C

Riff-D

Guitar 1
d|---------------------------------------------------------|
A|---------------------------------------------------------|
F|---------------------------------------------------------| X 1
C|-2-------------------------------------------------------|
G|-2----------3-3-3-3-3-3-3-3-----------5-5-5-5------------|
C|-2----------------------------3-3-3-3----------2-2-2-----|

First time above next 3 times play
Guitar 1
d|---------------------------------------------------------|
A|---------------------------------------------------------|
F|---------------------------------------------------------|
C|---------------------------------------------------------|
G|------------3-3-3-3-3-3-3-3-----------5-5-5-5------------|
C|-2-2-2-2-2--------------------3-3-3-3----------2-2-2-----|

Guitar 2
d|---------------------------------------------------------------------|
A|---------------------------------------------------------------------|
F|--4-4-4-4-2-4-4-4-2-4-4-4-2-4-4-4---4-4-4-2-4-4-4-2-4-4-4-2-7-2------|
C|----------------------------------2-----------------------------2----|
G|---------------------------------------------------------------------|
C|---------------------------------------------------------------------|


Riff-E
Guitar 1
d|------------------------------------------------------------------|
A|------------------------------------------------------------------|
F|------------------------------------------------------------------|
C|--5p4h5-5-4-5-5-4h5----5p4h5-5-4-5-5-4h5----5p4h5-5-4-5-5-4h5-----|
G|--------------------5~-------------------3~-------------------0---|
C|------------------------------------------------------------------|

d|-----------------------------|
A|-----------------------------|
F|---------------------7-------|
C|--5p4h5-5-4-5-5-4h5--7-7--9--|
G|---------------------7-7--7--|
C|-----------------------------|


Guitar 2
d|------------------------------------------------------------------|
A|------------------------------------------------------------------|
F|--4p2h4-4-2-4-4-2h4----4p2h4-4-2-4-4-2h4----4p2h4-4-2-4-4-2h4-----|
C|--------------------4~-------------------2~--------------------5~-|
G|------------------------------------------------------------------|
C|------------------------------------------------------------------|

d|-----------------------------------------|
A|-----------------------------------------|
F|--4p2h4-4-2-4-4-2h4-----7~--2~--4~-------|
C|--------------------5~-------------------|
G|-----------------------------------------|
C|-----------------------------------------|


Repeat
Riff A
Riff B
Riff C

Half way through riff C guitar 2 plays.
Guitar 2
d|----------------------------------------------------------|
A|----------------------------------------------------------|
F|----------------------------------------------------------|
C|--7-7-7-7-5-7-7-7-7-5-7-7-8-8-8-8-8-7-3-3-3-3-5-3-5-7-----|
G|----------------------------------------------------------|
C|----------------------------------------------------------|
(Just do some improv hammers and pull offs to give the stylish feel)

Guitar 2 ends with
d|--------------|
A|--------------|
F|--7-p.h.------|
C|--------------|
G|--------------|
C|--------------|

  Visit MetalTabs.com for more metal tablature

bottom separator

Contact Us | Privacy Policy | Disclaimer | Legal Notice
Copyright © 2001-2014 MetalTabs.com. All Rights Reserved.