top separator

Home

Forum

What's New

Submit a Tab

FAQ

Links

Contact Us

Link to Us

MuSpy.com

MetalTabs.com logo

Bands

0-9

A

B

C

D

E

F

G

H

I

J

K

L

M

N

O

P

Q

R

S

T

U

V

W

X

Y

Z

Search

What

Where
 

Skyfire - "Tranquillity's Maze" Guitar Tab

Plain Text Version
More Skyfire Tabs

Hits: 3223
Rated: 4.00 out of 5 (2 votes)
Updated: 2005-09-28 08:35:23

 

By:

sendpm.gif

email.gif

Important note
This tab is available online because we obtained explicit permission from Skyfire or their label.


#----------------------------------PLEASE NOTE---------------------------------#
#This file is the author's own work and represents their interpretation of the #
#song. You may only use this file for private study, scholarship, or research. #
#Unless specified otherwise, this is NOT an official tab from the band members.#
#------------------------------------------------------------------------------#

  Visit MetalTabs.com for more metal tablature
  
Band:  (SKYFIRE)
Album: (SPECTRAL)
Song:  (TRANQUILITY'S MAZE)

Version 1.0 - (2005)

Transcribed By: (DIABOLO080)
Email:          (jorge_geografia2001@hotmail.com)


.  - palm mute           /  - slide up to
\  - slide down to       ~  - vibrato
h  - hammer on           b  - Bend
p  - pull off            Suffixes for bend
t  - tap                 f  - full bend    h - half bend
ph - pinched harmonic    q  - quarter bend t - tap bend
*  - see comment         ^  - Hold bend    r release bend
x  - Stuccatto           ~  - vibrato bend
,  - slight palm mute    () - ghost note, sustained note
"  - tremolo note        <> - Trill


Tunning E A D G B E


RIFF 1  Both Guitars (1 time)
|-------------------------------------------------------------------|
|-------------------------------------------------------------------|
|-------------------------------------------------------------------|
|-9-9---9--9999---9--9999--7-7-7---9-9---9--9999---9--9999--7-7-7---|
|-9-9---9--9999---9--9999--7-7-7---9-9---9--9999---9--9999--7-7-7---|
|-7-7-777--7777-777--7777--5-5-5---7-7-777--7777-777--7777--5-5-5---|
      ..   .... ..   ....              ..   .... ..   ....


RIFF 2  Guitar 1 (2 times)
|-------------------------------------------------------------------|
|-------------------------------------------------------------------|
|-------------------------------------------------------------------|
|-------------------------------------------------------------------|
|----------------------99-77-55-44----------------------------------|
|-77777-101010-999-777-------------777-101010-999-55555555----------|
|                                                                   |
| Guitar 2 (2 times)                                                |
|-------------------------------------------------------------------|
|-------------------------------------------------------------------|
|-------------------------1111-99-77-66-----------------------------|
|-99999-121212-111111-999---------------999-121212-111111-777777777-|
|-------------------------------------------------------------------|
|-------------------------------------------------------------------|



RIFF 1  Both Guitars (1 time)
|-------------------------------------------------------------------|
|-------------------------------------------------------------------|
|-------------------------------------------------------------------|
|-9-9---9--9999---9--9999--7-7-7---9-9---9--9999---9--9999--7-7-7---|
|-9-9---9--9999---9--9999--7-7-7---9-9---9--9999---9--9999--7-7-7---|
|-7-7-777--7777-777--7777--5-5-5---7-7-777--7777-777--7777--5-5-5---|
      ..   .... ..   ....              ..   .... ..   ....


RIFF 3  Guitar 1 (1 time)
|----------------------------------------------------------------------------|
|----------------------------------------------------------------------------|
|----------------------------------------------------------------------------|
|---------------------------------------------------7-7-7-7-7------2--2--222-|
|---------------------------------------------------7-7-7-7-7------2--2--222-|
|-7777777777777777777-555555555-7777777777777777777-5-5-5-5-5--12/-0--0--000-|
|                                                                            |
| Guitar 2 (1 time)                                                          |
|----------------------------------------------------------------------------|
|----------------------------------------------------------------------------|
|----------------------------------------------------------------------------|
|-9999999999999999999-777777777-9999999999999999999-7-7-7-7-7------2--2--222-|
|---------------------------------------------------7-7-7-7-7------2--2--222-|
|---------------------------------------------------5-5-5-5-5--12/-0--0--000-|


FILL 1 Both Guitars
|-------------------------|
|-------------------------|
|-------------------------|
|-------------------------|
|-------------------------|
|---7--5--3--5--3--2--0---|


RIFF 4 Both Guitars
|-------------------------------------------------------|
|-------------------------------------------------------|
|-------------------------------------------------------|
|-4--------4-4------------4--------4-4------------------|
|-2-222222-2-2-2222222222-2-222222-2-2------------------|
|--------------------------------------7-5-3-5-3-2-0----|
    ......     ..........   ......

|-------------------------------------------------------|
|-------------------------------------------------------|
|-------------------------------------------------------|
|-9--------9-9------------7--------7-7------------------|
|-7-777777-7-7-7777777777-5-555555-5-5------------------|
|--------------------------------------7-5-3-5-3-2-0----|
    ......     ..........   ......

|-------------------------------------------------------|
|-------------------------------------------------------|
|-------------------------------------------------------|
|-4--------4-4------------4--------4-4------------------|
|-2-222222-2-2-2222222222-2-222222-2-2------------------|
|--------------------------------------7-5-3-5-3-2-0----|
    ......     ..........   ......

|-------------------------------------------------------|
|-------------------------------------------------------|
|-------------------------------------------------------|
|-9--------9-9------------7--------7-7------------------|
|-7-777777-7-7-7777777777-5-555555-5-5------------------|
|--------------------------------------7-5-3-5-3-2-0----|
    ......     ..........   ......


|-------------------------------------------------------------------|
|-------------------------------------------------------------------|
|-------------------------------------------------------------------|
|-4--------4-4------------4--------4-4------------------------------|
|-2-222222-2-2-2222222222-2-222222-2-2------------------------------|
|--------------------------------------7-5-3-5-3-2-0--7-5-3-5-3-2-0-|
    ......     ..........   ......



RIFF 5.1  Guitar 1 (2 times)
|-------------------------------------------------------------------------------
|----------h-p-----------------h-p-----------------h-p-----------------h-p------
|11-9-9-7-7-9-7------11-9-9-7-7-9-7------11-9-9-7-7-9-7------11-9-9-7-7-9-7-----
|---------------11-9----------------11-9----------------11-9----------------11-9
|-------------------------------------------------------------------------------
|-------------------------------------------------------------------------------
|
| GUitar 2 (1 time)
|-------------------------------------------------------------------------------
|-------------------------------------------------------------------------------
|-------------------------------------------------------------------------------
|2------------------------------------7-----------------------------------------
|2----------------5-------------------5------------------------777777777-7-3--2-
|0-------------00-3-----------------00----------------------0--555555555-5-3--0-
               ..                   ..                         .........

RIFF 5.2  Guitar 1 (2 times)
|-------------------------------------------------------------------------------
|----------h-p-----------------h-p-----------------h-p-----------------h-p------
|11-9-9-7-7-9-7------11-9-9-7-7-9-7------11-9-9-7-7-9-7------11-9-9-7-7-9-7-----
|---------------11-9----------------11-9----------------11-9----------------11-9
|-------------------------------------------------------------------------------
|-------------------------------------------------------------------------------
|
| GUitar 2 (1 time)
|-------------------------------------------------------------------------------
|-------------------------------------------------------------------------------
|-------------------------------------------------------------------------------
|2------2------2-----------------------7------7------7--------------------------
|2------2------2----5------5------5----5-5555-5-5555-5---7-7777-7-7777-7-5-2----
|0-0000-0-0000-0--0-3-3333-3-3333-3--0-----------------0-5-5555-5-5555-5-3-0----
   ....   ....        ....   ....        ....   ....       ....   ....



RIFF 4 Both Guitars
|-------------------------------------------------------|
|-------------------------------------------------------|
|-------------------------------------------------------|
|-9--------9-9------------7--------7-7------------------|
|-7-777777-7-7-7777777777-5-555555-5-5------------------|
|--------------------------------------7-5-3-5-3-2-0----|
    ......     ..........   ......

|-------------------------------------------------------|
|-------------------------------------------------------|
|-------------------------------------------------------|
|-4--------4-4------------4--------4-4------------------|
|-2-222222-2-2-2222222222-2-222222-2-2------------------|
|--------------------------------------7-5-3-5-3-2-0----|
    ......     ..........   ......

|-------------------------------------------------------|
|-------------------------------------------------------|
|-------------------------------------------------------|
|-9--------9-9------------7--------7-7------------------|
|-7-777777-7-7-7777777777-5-555555-5-5------------------|
|--------------------------------------7-5-3-5-3-2-0----|
    ......     ..........   ......


|-------------------------------------------------------------------|
|-------------------------------------------------------------------|
|-------------------------------------------------------------------|
|-4--------4-4------------4--------4-4------------------------------|
|-2-222222-2-2-2222222222-2-222222-2-2------------------------------|
|--------------------------------------7-5-3-5-3-2-0--7-5-3-5-3-2-0-|
    ......     ..........   ......



RIFF 5.1  Guitar 1 (2 times)
|-------------------------------------------------------------------------------
|----------h-p-----------------h-p-----------------h-p-----------------h-p------
|11-9-9-7-7-9-7------11-9-9-7-7-9-7------11-9-9-7-7-9-7------11-9-9-7-7-9-7-----
|---------------11-9----------------11-9----------------11-9----------------11-9
|-------------------------------------------------------------------------------
|-------------------------------------------------------------------------------
|
| GUitar 2 (1 time)
|-------------------------------------------------------------------------------
|-------------------------------------------------------------------------------
|-------------------------------------------------------------------------------
|2------------------------------------7-----------------------------------------
|2----------------5-------------------5------------------------777777777-7-3--2-
|0-------------00-3-----------------00----------------------0--555555555-5-3--0-
               ..                   ..                         .........

RIFF 5.2  Guitar 1 (2 times)
|-------------------------------------------------------------------------------
|----------h-p-----------------h-p-----------------h-p-----------------h-p------
|11-9-9-7-7-9-7------11-9-9-7-7-9-7------11-9-9-7-7-9-7------11-9-9-7-7-9-7-----
|---------------11-9----------------11-9----------------11-9----------------11-9
|-------------------------------------------------------------------------------
|-------------------------------------------------------------------------------
|
| GUitar 2 (1 time)
|-------------------------------------------------------------------------------
|-------------------------------------------------------------------------------
|-------------------------------------------------------------------------------
|2------2------2-----------------------7------7------7--------------------------
|2------2------2----5------5------5----5-5555-5-5555-5---7-7777-7-7777-7-5-2----
|0-0000-0-0000-0--0-3-3333-3-3333-3--0-----------------0-5-5555-5-5555-5-3-0----
   ....   ....        ....   ....        ....   ....       ....   ....


RIFF 1  Both Guitars (1 time)
|-------------------------------------------------------------------|
|-------------------------------------------------------------------|
|-------------------------------------------------------------------|
|-9-9---9--9999---9--9999--7-7-7---9-9---9--9999---9--9999--7-7-7---|
|-9-9---9--9999---9--9999--7-7-7---9-9---9--9999---9--9999--7-7-7---|
|-7-7-777--7777-777--7777--5-5-5---7-7-777--7777-777--7777--5-5-5---|
      ..   .... ..   ....              ..   .... ..   ....


RIFF 2  Guitar 1 (2 times)
|-------------------------------------------------------------------|
|-------------------------------------------------------------------|
|-------------------------------------------------------------------|
|-------------------------------------------------------------------|
|----------------------99-77-55-44----------------------------------|
|-77777-101010-999-777-------------777-101010-999-55555555----------|
|                                                                   |
| Guitar 2 (2 times)                                                |
|-------------------------------------------------------------------|
|-------------------------------------------------------------------|
|-------------------------1111-99-77-66-----------------------------|
|-99999-121212-111111-999---------------999-121212-111111-777777777-|
|-------------------------------------------------------------------|
|-------------------------------------------------------------------|



RIFF 6 Guitar 1 (2 times)
|-----------------------------------------------------------|
|------------------------------10-12-14-12-10-17/15-15-14---|
|--------------14-12-11----11-------------------------------|
|-9-11-12-11-9----------14----------------------------------|
|-----------------------------------------------------------|
|-----------------------------------------------------------|

|-----------------------------------------------------------|
|------------------------------------10-------8-------------|
|--------------14-12-11----11------7--------7---------------|
|-9-11-12-11-9----------14-------7--------7-----------------|
|------------------------------7--------7-------------------|
|-----------------------------------------------------------|

RIFF 6 Guitar 2 (2 times) RYTHM
|-----------------------------------------------------------|
|-----------------------------------------------------------|
|-----------------------------------------------------------|
|-----------------------------------------------------------|
|---7-9-10-9-7----7-9-10-9-7----5-7-9-7-5----5-7-9-7-5------|
|-7-------------7-------------5------------5----------------|

|-----------------------------------------------------------|
|-----------------------------------------------------------|
|-----------------------------------------------------------|
|-----------------------------------7-------5---------------|
|---7-9-10-9-7----7-9-10-9-7----0-5-----0-5-----------------|
|-7-------------7-------------0-------0---------------------|


FILL 2 (1 time)
|-------------------------------------------------------------------|
|-------------------------------------------------------------------|
|-14-12----12-------------------------------------------------------|
|-------15----15-14-15-14-12-14-12-11-12-11-9-11-12-11-9------------|
|-------------------------------------------------------------------|
|-------------------------------------------------------------------|


|-------------------------------------------------------------------|
|-------------------------------------------------------------------|
|-------------------------------------------------------------------|
|--7-5---5----------------------------------------------------------|
|------8---8-7-8-7-5-7-5-4-5-4-2-4-5-4-2----------------------------|
|-------------------------------------------------------------------|


RIFF 7 Guitar 1 (2 times)
|-------------------------------------------------------------------|
|-----------------------------------------------14-13-12------------|
|--------------------------------10-12-14-12-10----------14-12------|
|-9--9-11-12-11-9-12-14-15-14-12------------------------------------|
|-------------------------------------------------------------------|
|-------------------------------------------------------------------|

|-------------------------------------------------------------------|
|-------------------------------------------------------------------|
|--------------------------------12-15-14-12----------12-14-15------|
|-9--9-11-12-11-9-12-14-15-14-12-------------15-14-12---------------|
|-------------------------------------------------------------------|
|-------------------------------------------------------------------|

RIFF 7 Guitar 2 (4 times) RYTHM
|-------------------------------------------------------------------|
|-------------------------------------------------------------------|
|-------------------------------------------------------------------|
|----4------------7--------------10---------------------------------|
|----2------------5--------------8----------------------------------|
|-------------------------------------------------------------------|


RIFF 8 Guitar 1 (2 times)
|------------------------------------------------------------|
|-------------------------------11-13-15-13-11-18/16-16-15---|
|----------------15-13-12----12------------------------------|
|-10-12-13-12-10----------15---------------------------------|
|------------------------------------------------------------|
|------------------------------------------------------------|

|------------------------------------------------------------|
|--------------------------------------11-------9------------|
|----------------15-13-12----12------8--------8--------------|
|-10-12-13-12-10----------15-------8--------8----------------|
|--------------------------------8--------8------------------|
|------------------------------------------------------------|

RIFF 6 Guitar 2 (2 times) RYTHM
|------------------------------------------------------------|
|------------------------------------------------------------|
|------------------------------------------------------------|
|------------------------------------------------------------|
|---8-10-11-10-8----8-10-11-10-8----6-8-10-8-6----6-8-10-8-6-|
|-8---------------8---------------6-------------6------------|

|------------------------------------------------------------|
|------------------------------------------------------------|
|------------------------------------------------------------|
|---------------------------------------8--------6-----------|
|---8-10-11-10-8----8-10-11-10-8----0-6------0-6-------------|
|-8---------------8---------------0-------0------------------|


FILL 3 (1 time)
|-------------------------------------------------------------------|
|-------------------------------------------------------------------|
|-15-13----13-------------------------------------------------------|
|-------16----16-15-16-15-13-15-13-12-13-12-10-12-13-12-10----------|
|-------------------------------------------------------------------|
|-------------------------------------------------------------------|


|-------------------------------------------------------------------|
|-------------------------------------------------------------------|
|-------------------------------------------------------------------|
|--8-6---6----------------------------------------------------------|
|------9---9-8-9-8-6-8-6-5-4-5-3-5-6-5-3----------------------------|
|-------------------------------------------------------------------|



RIFF 1  Both Guitars (1 time)
|-------------------------------------------------------------------|
|-------------------------------------------------------------------|
|-------------------------------------------------------------------|
|-9-9---9--9999---9--9999--7-7-7---9-9---9--9999---9--9999--7-7-7---|
|-9-9---9--9999---9--9999--7-7-7---9-9---9--9999---9--9999--7-7-7---|
|-7-7-777--7777-777--7777--5-5-5---7-7-777--7777-777--7777--5-5-5---|
      ..   .... ..   ....              ..   .... ..   ....


RIFF 2  Guitar 1 (2 times)
|-------------------------------------------------------------------|
|-------------------------------------------------------------------|
|-------------------------------------------------------------------|
|-------------------------------------------------------------------|
|----------------------99-77-55-44----------------------------------|
|-77777-101010-999-777-------------777-101010-999-55555555----------|
|                                                                   |
| Guitar 2 (2 times)                                                |
|-------------------------------------------------------------------|
|-------------------------------------------------------------------|
|-------------------------1111-99-77-66-----------------------------|
|-99999-121212-111111-999---------------999-121212-111111-777777777-|
|-------------------------------------------------------------------|
|-------------------------------------------------------------------|



RIFF 4 Both Guitars
|-------------------------------------------------------|
|-------------------------------------------------------|
|-------------------------------------------------------|
|-9--------9-9------------7--------7-7------------------|
|-7-777777-7-7-7777777777-5-555555-5-5------------------|
|--------------------------------------7-5-3-5-3-2-0----|
    ......     ..........   ......

|-------------------------------------------------------|
|-------------------------------------------------------|
|-------------------------------------------------------|
|-4--------4-4------------4--------4-4------------------|
|-2-222222-2-2-2222222222-2-222222-2-2------------------|
|--------------------------------------7-5-3-5-3-2-0----|
    ......     ..........   ......

|-------------------------------------------------------|
|-------------------------------------------------------|
|-------------------------------------------------------|
|-9--------9-9------------7--------7-7------------------|
|-7-777777-7-7-7777777777-5-555555-5-5------------------|
|--------------------------------------7-5-3-5-3-2-0----|
    ......     ..........   ......


|-------------------------------------------------------------------|
|-------------------------------------------------------------------|
|-------------------------------------------------------------------|
|-4--------4-4------------4--------4-4------------------------------|
|-2-222222-2-2-2222222222-2-222222-2-2------------------------------|
|--------------------------------------7-5-3-5-3-2-0--7-5-3-5-3-2-0-|
    ......     ..........   ......



RIFF 5.1  Guitar 1 (2 times)
|-------------------------------------------------------------------------------
|----------h-p-----------------h-p-----------------h-p-----------------h-p------
|11-9-9-7-7-9-7------11-9-9-7-7-9-7------11-9-9-7-7-9-7------11-9-9-7-7-9-7-----
|---------------11-9----------------11-9----------------11-9----------------11-9
|-------------------------------------------------------------------------------
|-------------------------------------------------------------------------------
|
| GUitar 2 (1 time)
|-------------------------------------------------------------------------------
|-------------------------------------------------------------------------------
|-------------------------------------------------------------------------------
|2------------------------------------7-----------------------------------------
|2----------------5-------------------5------------------------777777777-7-3--2-
|0-------------00-3-----------------00----------------------0--555555555-5-3--0-
               ..                   ..                         .........

RIFF 5.2  Guitar 1 (2 times)
|-------------------------------------------------------------------------------
|----------h-p-----------------h-p-----------------h-p-----------------h-p------
|11-9-9-7-7-9-7------11-9-9-7-7-9-7------11-9-9-7-7-9-7------11-9-9-7-7-9-7-----
|---------------11-9----------------11-9----------------11-9----------------11-9
|-------------------------------------------------------------------------------
|-------------------------------------------------------------------------------
|
| GUitar 2 (1 time)
|-------------------------------------------------------------------------------
|-------------------------------------------------------------------------------
|-------------------------------------------------------------------------------
|2------2------2-----------------------7------7------7--------------------------
|2------2------2----5------5------5----5-5555-5-5555-5---7-7777-7-7777-7-5-2----
|0-0000-0-0000-0--0-3-3333-3-3333-3--0-----------------0-5-5555-5-5555-5-3-0----
   ....   ....        ....   ....        ....   ....       ....   ....

FILL 4 Guitar 1 (1 time) END
|-------------------------------------------------------------------|
|-------------------------------------------------------------------|
|-------------------------------------------------------------------|
|-14-14-13-12-12-11-10-----------9-9-9------------------------------|
|--------------------------------7-7-7------------------------------|
|-------------------------------------------------------------------|
  Guitar 2 (1 time)
|-------------------------------------------------------------------|
|-------------------------------------------------------------------|
|-------------------------------------------------------------------|
|--------------------------------9-9-9------------------------------|
|-7-7-6-5-5-4-3------------------7-7-7------------------------------|
|-------------------------------------------------------------------|

END

  Visit MetalTabs.com for more metal tablature

bottom separator

Contact Us | Privacy Policy | Disclaimer | Legal Notice
Copyright © 2001-2014 MetalTabs.com. All Rights Reserved.