top separator

Home

Forum

What's New

Submit a Tab

FAQ

Links

Contact Us

Link to Us

MuSpy.com

MetalTabs.com logo

Bands

0-9

A

B

C

D

E

F

G

H

I

J

K

L

M

N

O

P

Q

R

S

T

U

V

W

X

Y

Z

Search

What

Where
 

Countess - "Heilig Vuur" Guitar Tab

Plain Text Version
More Countess Tabs

Hits: 2086
Updated: 2005-09-28 08:33:01

 

By:

Unadorned

sendpm.gif

email.gif

Important note
This tab is available online because we obtained explicit permission from Countess or their label.


#----------------------------------PLEASE NOTE---------------------------------#
#This file is the author's own work and represents their interpretation of the #
#song. You may only use this file for private study, scholarship, or research. #
#Unless specified otherwise, this is NOT an official tab from the band members.#
#------------------------------------------------------------------------------#

  Visit MetalTabs.com for more metal tablature
  
Band:  Countess
Album: Heilig Vuur
Song:  Heilig Vuur

Copyright (c)  Barbarian Wrath, 2004
Version 1.0 - 9/15/05

Transcribed By: Mike
Email:          mfmierzejewski at aol dot com


.  - palm mute           /  - slide up to
\  - slide down to       ~  - vibrato
h  - hammer on           b  - Bend
p  - pull off            Suffixes for bend
t  - tap                 f  - full bend    h - half bend
ph - pinched harmonic    q  - quarter bend t - tap bend
*  - see comment         ^  - Hold bend    r release bend
x  - Stuccatto           ~  - vibrato bend
,  - slight palm mute    () - ghost note, sustained note
"  - tremolo note        <> - Trill





Tuning: Standard (EADGBe)

Riff 1
|--------------------------------|
|--------------------------------|
|--------------------------------|
|-4---7-4---4---7-4------4-4-4-4-|
|-4---7-4---4---7-4------4-4-4-4-|
|-2---5-2---2---5-2------2-2-2-2-|
                         . . . .


Fill 1
|-------------|
|-------------|
|-------4-----|
|-2-----4-----|
|-2-----2-----|
|-0-----------|


Fill 2
|-------------------------------------------------------------------|
|-------------------------------------------------------------------|
|-------------------------------------------------------------------|
|-5-5-5-5-5-5-5-5-5-5-5-5-5-5-5-5-----------------------------------|
|-5-5-5-5-5-5-5-5-5-5-5-5-5-5-5-5-----------------------------------|
|-3-3-3-3-3-3-3-3-3-3-3-3-3-3-3-3-----------------------------------|
  . . . . . . . . . . . . . . . .



Solo 1
|-12-----------------------------------------------12---------------|
|--------15-13-12-13-12-13-15-13----------12-13-15----15-13-12-13---|
|--------------------------------14----14---------------------------|
|-------------------------------------------------------------------|
|-------------------------------------------------------------------|
|-------------------------------------------------------------------|



|-12------------------------------------------------------------------|
|----15-13-12----12----13-12------------------------------------------|
|-------------14-------------14-12-11-12-14----12-11-12-13-12-11-12---|
|---------------------------------------------------------------------|
|---------------------------------------------------------------------|
|---------------------------------------------------------------------|


|-------------------------------------------------------------------|
|-------------------------------------------------------------------|
|-11-12-14-12-11-12-14-12-11-12-14-12-11-12-14-12-9-----------------|
|-------------------------------------------------------------------|
|-------------------------------------------------------------------|
|-------------------------------------------------------------------|




Riff 2a
|-------------------------------------------------------------------|
|-------------------------------------------------------------------|
|-------------------------------------------------------------------|
|-------------------------------------------------------------------|
|---------------2"------------0"------------3"----------------------|
|-3"----------------------------------------------------------------|

Riff 2b
|-------------------------------------------------------------------|
|-------------------------------------------------------------------|
|------------------------------------2-2-2-2-2-2-2-2-2-2-2-2-2-2-2-2|
|------------------------------------2-2-2-2-2-2-2-2-2-2-2-2-2-2-2-2|
|-------------2"----------0"---------0-0-0-0-0-0-0-0-0-0-0-0-0-0-0-0|
|-3"----------------------------------------------------------------|
                                     . . . . . . . . . . . . . . . .


Chorus riff
|-------------------------------------------------------------------|
|-------------------------------------------------------------------|
|-------------------------------------------------------------------|
|-4--7--5----5-5-5-5-5-5-5-5--4--7--5----5-5-5-5-5-5-5-5------------|
|-4--7--5----5-5-5-5-5-5-5-5--4--7--5----5-5-5-5-5-5-5-5------------|
|-2--5--3----3-3-3-3-3-3-3-3--2--5--3----3-3-3-3-3-3-3-3------------|
             . . . . . . . .             . . . . . . . .



Riff 3a
|-------------------------------------------------------------------|
|-------------------------------------------------------------------|
|-------------------------------------------------------------------|
|-------------------------------------------------------------------|
|-------2--3--2-----------------2--3--2-----------------------------|
|-2--3-----------3--2--3--2--3-----------3--2-----------------------|


Riff 3b
|-------------------------------------------------------------------|
|-------------------------------------------------------------------|
|-------------------------------------------------------------------|
|-------------2-----------------------2-----------------------------|
|-------2--3-----3--2-----------2--3-----3--2-----------------------|
|-2--3-----------------3--2--3--------------------------------------|



Riff 3c
|-------------------------------------------------------------------|
|-------------------------------------------------------------------|
|-------------------------------------------------------------------|
|-------2--4--2-----------------2--4--2-----------------------------|
|-2--3-----------3--2--3--2--3-----------3--2-----------------------|
|-------------------------------------------------------------------|

Riff 3d
|-------------------------------------------------------------------|
|-------------------------------------------------------------------|
|-------------------------------------------------------------------|
|----------------------------------2--4--2--5-----------------------|
|-3--2--------2--------------2--3-----------------------------------|
|-------3--------3--2-----3-----------------------------------------|
|
|-------------------------------------------------------------------|
|-------------------------------------------------------------------|
|-------------------------------------------------------------------|
|-4--2---------2------------5--4--2---------------------------------|
|-------3---------3--2---------------3--2---------------------------|
|------------------------------------------3--2---------------------|




Solo 2
|-------------------12----------------------12-----14-12-14-15--|
|----------12-13-15----15-13-12----12-13-15---------------------|
|-11-12-14----------------------14------------------------------|
|---------------------------------------------------------------|
|---------------------------------------------------------------|
|---------------------------------------------------------------|
|
|--14-12-14-15-14-12-14-12----12-14----12---------------------------|
|--------------------------15-------------15-13-12----12-13-12------|
|--------------------------------------------------14---------------|
|-------------------------------------------------------------------|
|-------------------------------------------------------------------|
|-------------------------------------------------------------------|
|
|-12-------------------------------12----------------------12-------|
|----15-13-12----12-13----12-14-15----15-13-12----12-13-15----15-13-|
|-------------14-------14-------------------------------------------|
|-------------------------------------------------------------------|
|-------------------------------------------------------------------|
|-------------------------------------------------------------------|
|
|-------------------------------------------------------------------|
|-12----12----------------------------------------------------------|
|----14----14-12-11-14-12-11-9--------------------------------------|
|-------------------------------------------------------------------|
|-------------------------------------------------------------------|
|-------------------------------------------------------------------|


Solo 3
|-14"---------15"-17"-15"-14"-12"-14"-12"-------12"-14"-12"---------|
|-----------------------------------------15"---------------15"-13"-|
|-------------------------------------------------------------------|
|-------------------------------------------------------------------|
|-------------------------------------------------------------------|
|-------------------------------------------------------------------|
|
|-------------------------------------------------------------------|
|-12"-13"-12"-----12"-13"-13"---------------------------------------|
|-------------14"-------------14"-12--------------------------------|
|-------------------------------------------------------------------|
|-------------------------------------------------------------------|
|-------------------------------------------------------------------|


Riff 4
|-------------------------------------------------------------------|
|-------------------------------------------------------------------|
|-------------------------------------------------------------------|
|-4-------------4--4-------------4--5-------------5--5--------------|
|-4-------------4--4-------------4--5-------------5--5--------------|
|-2-------------2--2-------------2--3-------------3--3--------------|
|
|-------------------------------------------------------------------|
|-------------------------------------------------------------------|
|-------------------------------------------------------------------|
|-9-------------9--9-------------9--7-------------7--7--------------|
|-9-------------9--9-------------9--7-------------7--7--------------|
|-7-------------7--7-------------7--5-------------5--5--------------|


End:
|----------|
|----------|
|----------|
|-4--7--5--|
|-4--7--5--|
|-2--5--3--|


Structure:
Riff 1                  x1
Fill 1                  x1
Riff 1                  x1}__w/ Solo 1
Fill 1                  x1}
Riff 2a                 x1
Riff 1                  x1
Riff 2b                 x1
Chorus Riff             x2
Riff 1                  x1
Riff 2a                 x1
Riff 1                  x1
Riff 2b                 x1
Chorus Riff             x2
Riff 1                  x1
Riff 2a                 x1
Riff 1                  x1
Riff 2b                 x1
Chorus Riff             x2
Riff 1                  x1
Keyboard plays riff 3a
Riff 3a                 x2
Riff 3b                 x2
Riff 3c                 x2
Riff 3d                 x1
Riff 4                  x2 w/ Solos 2 and 3
Riff 2a                 x1
Riff 1                  x1
Riff 2b                 x1
Chorus Riff             x2
Riff 1                  x1
End                     x1

  Visit MetalTabs.com for more metal tablature

bottom separator

Contact Us | Privacy Policy | Disclaimer | Legal Notice
Copyright © 2001-2014 MetalTabs.com. All Rights Reserved.