top separator

Home

Forum

What's New

Submit a Tab

FAQ

Links

Contact Us

Link to Us

MuSpy.com

MetalTabs.com logo

Bands

0-9

A

B

C

D

E

F

G

H

I

J

K

L

M

N

O

P

Q

R

S

T

U

V

W

X

Y

Z

Search

What

Where
 

Mourning Beloveth - "Dust" Bass Tab

Plain Text Version
More Mourning Beloveth Tabs

Hits: 2676
Rated: 5.00 out of 5 (4 votes)
Updated: 2006-11-07 06:23:48

 

By:

Paddy

sendpm.gif

email.gif

Important note
This tab is available online because we obtained explicit permission from Mourning Beloveth or their label.


#----------------------------------PLEASE NOTE---------------------------------#
#This file is the author's own work and represents their interpretation of the #
#song. You may only use this file for private study, scholarship, or research. #
#Unless specified otherwise, this is NOT an official tab from the band members.#
#------------------------------------------------------------------------------#

  Visit MetalTabs.com for more metal tablature
  
================================================================================
                       M O U R N I N G     B E L O V E T H

                                        -

                                     D U S T
================================================================================


                                      DUST
                           (c) Sentinel Records - 2000
                        http://www.mourningbeloveth.com/


                              Tune Down 1 & 1/2 Steps
                                    C# F# B E

                                  Tempo = 65 BPM
                               Time Signature = 4/4



                          -----------------------------
                                 Transcribed by

                                 PADDY MCMULLAN
                           stinkypoohpants@yahoo.co.uk

                                   Version 1.0
                             -----------------------

                             Tablature Symbols Used:


 p         -  Pull-Off
 h         -  Hammer-On
 (/)       -  Legato Slide (Blank space indicates length of slide)
 \         -  Slide Down to/Down From (Blank space indicates length of slide)
 /         -  Slide Up To/Up From (Blank space indicates length of slide)
 ( )       -  Ghost Note/Tied Note/Implied Note
 REST      -  Rest and sustain rest for duration of blank space
 |_3_|     -  Triplet notes



================================================================================
Rest for 8 bars
================================================================================

================================================================================
Riff 1: Play 6 times
================================================================================


||----------------------|-------R -------------|----------------------|
||----------------------|-------E -------------|----------------------|
||--0------0--2------2--|--2--3-S -3--------3--|--0------0--1------1--|
||----------------------|-------T -------------|----------------------|


|----------------------| |
|----------------------|*|
|----------------------|*|
|--1------1--0------0--| |



================================================================================
Riff 2: Play 8 times
================================================================================


||----------------------|----------------------|----------------------|
||----------------------|----------------------|----------------------|
||------------7------7--|------------8----7----|--3------3--3------3--|
||--0------0------------|--0------0------------|----------------------|


|-----------------------| |
|-----------------------|*|
|--2------2--5--2-------|*|
|------------------3----| |



================================================================================
Riff 3: Play 6 times
================================================================================


||--------------------------|--------------------------|
||--------------------------|--------------------------|
||--0--0--2--3--0--3--2--0--|--0--0--2--3--0--3--2-----|
||--------------------------|-----------------------3--|


|-------------------------|------------------------| |
|-------------------------|------------------------|*|
|-------------------------|------------------------|*|
|--1--1--1--1----1--1--1--|--0----4--5--7----4--5--| |



================================================================================
Riff 4: Play 6 times [Tempo = 70BPM]
================================================================================


| |----------------|-----------------|------------------|
|3|----------------|-----------------|------------------|
|/|--0-------------|-----------------|-------------5----|
|4|-----------3----|--0--------3--0--|--1------1-1------|


|------------------| |
|------------------|*|
|---------3--3--2--|*|
|--3---------------| |



================================================================================
Riff 5: Play 14 times
================================================================================


||------------------|------------------|------------------|
||------------------|------------------|------------------|
||--0------0--0--0--|--0------0--0-----|------------------|
||------------------|---------------0--|--1------1--1--0--|


|------------------| |
|------------------|*|
|---------0--2--3--|*|
|--3---------------| |



================================================================================
Play riff 1 twice [Tempo = BPM]
================================================================================

================================================================================
Play riff 3 twice
================================================================================

================================================================================
Riff 6: Play twice
================================================================================


||---------------------|-----------------------|------------------------| |
||---------------------|-----------------------|------------------------|*|
||--0-------------3----|-----------------------|------------------------|*|
||-----------1---------|--0----------0--0h1-0--|--0----4--5--7----4--5--| |



================================================================================
Play riff 3 twice
================================================================================

================================================================================
Play riff 6 twice
================================================================================

================================================================================
Play riff 3 twice
================================================================================

================================================================================
Play riff 4 four times
================================================================================

================================================================================
Play riff 2 eight times
================================================================================

================================================================================
Outro: Play once
================================================================================


||-------------||
||-------------||
||-------------||
||--0----------||



Hold this note for two bars, then strike it again, holding it until the song
fades out.



================================================================================
End
================================================================================


Tab summary:        Riff 1 x 6
                    Riff 2 x 8
                    Riff 3 x 6
                    Riff 4 x 6
                    Riff 5 x 14
                    Riff 1 x 2
                    Riff 3 x 2
                    Riff 6 x 2
                    Riff 3 x 2
                    Riff 6 x 2
                    Riff 3 x 2
                    Riff 4 x 4
                    Riff 2 x 8
                    Outro x 1

                    END

  Visit MetalTabs.com for more metal tablature

bottom separator

Contact Us | Privacy Policy | Disclaimer | Legal Notice
Copyright © 2001-2014 MetalTabs.com. All Rights Reserved.