top separator

Home

Forum

What's New

Submit a Tab

FAQ

Links

Contact Us

Link to Us

MetalTabs.com logo

Bands

0-9

A

B

C

D

E

F

G

H

I

J

K

L

M

N

O

P

Q

R

S

T

U

V

W

X

Y

Z

Search

What

Where
 

Mourning Beloveth - "Dust" Guitar Tab

Plain Text Version
More Mourning Beloveth Tabs

Hits: 3053
Rated: 5.00 out of 5 (4 votes)
Updated: 2006-11-07 06:23:40

 

By:

Paddy

sendpm.gif

email.gif

Important note
This tab is available online because we obtained explicit permission from Mourning Beloveth or their label.


#----------------------------------PLEASE NOTE---------------------------------#
#This file is the author's own work and represents their interpretation of the #
#song. You may only use this file for private study, scholarship, or research. #
#Unless specified otherwise, this is NOT an official tab from the band members.#
#------------------------------------------------------------------------------#

  Visit MetalTabs.com for more metal tablature
  
================================================================================
                       M O U R N I N G   B E L O V E T H

                                       -

                                    D U S T
================================================================================


                                      DUST
                           (c) Sentinel Records - 2000
                        http://www.mourningbeloveth.com/


                              Tune Down 1 & 1/2 Steps
                                  C# F# B E G# C#

                                  Tempo = 65 BPM
                               Time Signature = 4/4



                          -----------------------------
                                 Transcribed by

                                 PADDY MCMULLAN
                           stinkypoohpants@yahoo.co.uk

                                   Version 1.1
                      (Corrections Outlined at Bottom of Tab)
                             -----------------------

                             Tablature Symbols Used:


 P.M...    -  Palm Mute
 p         -  Pull-Off
 h         -  Hammer-On
 (/)       -  Legato Slide (Blank space indicates length of slide)
 \         -  Slide Down to/Down From (Blank space indicates length of slide)
 /         -  Slide Up To/Up From (Blank space indicates length of slide)
 ( )       -  Ghost Note/Tied Note/Implied Note
 REST      -  Rest and sustain rest for duration of blank space
 |_3_|     -  Triplet notes



================================================================================
Intro: Guitar 1 with heavy distortion (Play 2 times)
================================================================================


||--------------------|---------------------------|--------------------|
||--------------------|---------R ----------------|--------------------|
||--------------------|---------E ----------------|--------------------|
||--2--------2--------|--(4/ 5)-S -5---------(5)\-|--2--------3--------|
||--0--------2--------|--(2/ 3)-T -3---------(3)\-|--0--------1--------|
||--------------------|---------------------------|--------------------|


|--------------------| |
|--------------------| |
|--------------------|*|
|--3--------2--------|*|
|--3--------2--------| |
|--1--------0--------| |



================================================================================
Riff 1a: Guitar 1 (Play 3 times)
================================================================================


||--------------------|--------------------------|--------------------|
||--------------------|---------R ---------------|--------------------|
||--------------------|---------E ---------------|--------------------|
||--2--------2--------|--(4/ 5)-S -5--------(5)\-|--2--------3--------|
||--0--------2--------|--(2/ 3)-T -3--------(3)\-|--0--------1--------|
||--------------------|--------------------------|--------------------|


|--------------------|--------------------|------------------------------|
|--------------------|--------------------|---------R -------------------|
|--------------------|--------------------|---------E -------------------|
|--3--------2--------|--2--------2--------|--(4/ 5)-S -5------(5/7)--(7)\|
|--3--------2--------|--0--------2--------|--(2/ 3)-T -3-----------------|
|--1--------0--------|--------------------|------------------------------|


|--------------------|----------------------| |
|--------------------|----------------------| |
|--------------------|----------------------|*|
|--2--------3--------|------5---------------|*|
|--------------------|--3-------3--2--------| |
|--------------------|----------------------| |



================================================================================
Riff 1b: Guitar 2 with heavy distortion (Play 3 times)
================================================================================


||--------------------|---------------------------|--------------------|
||--------------------|---------R ----------------|--------------------|
||--------------------|---------E ----------------|--------------------|
||--2--------2--------|--(4/ 5)-S -5------(5/7)---|--2--------3--------|
||--0--------2--------|--(2/ 3)-T -3------(3/5)---|--0--------1--------|
||--------------------|---------------------------|--------------------|


|--------------------|--------------------|------------------------|
|--------------------|--------------------|--------R --------------|
|--------------------|--------------------|--------E --------------|
|--3--------2--------|--2--------2--------|--(4/ 5)S -5------5/7---|
|--3--------2--------|--0--------2--------|--(2/ 3)T -3------3/5---|
|--1--------0--------|--------------------|------------------------|


|--------------------|--------------------| |
|--------------------|--------------------| |
|--------------------|--------------------|*|
|--2--------3--------|--3--------2--------|*|
|-----------1--------|--3--------2--------| |
|--------------------|--1--------0--------| |



================================================================================
Riff 2a: Guitar 1 (Play 4 times)
================================================================================


||----------------------|----------------------|-------------------------|
||----------------------|----------------------|-------------------------|
||----------------------|----------------------|-------------------------|
||--2--------9------10\-|--2--------10----9\ --|--5-------------((5)/9)--|
||--2-------------------|--2-------------------|-------------------------|
||--0-------------------|--0-------------------|-------------------------|


|-----------------------------|----------------------|----------------------|
|-----------------------------|----------------------|----------------------|
|-----------------------------|----------------------|----------------------|
|--9\ 4----4h5-(5/7)------(7)\|--2--------9------10\-|--2--------10----9\ --|
|-----------------------------|--2-------------------|--2-------------------|
|-----------------------------|--0-------------------|--0-------------------|

                                                 |_3_|
|-------------------------|---------------------------------| |
|-------------------------|---------------------------------| |
|-------------------------|---------------------------------|*|
|--5-------------((5)/9)--|--9\ 4----4h5-(5/7)-5-4h5p4------|*|
|-------------------------|----------------------------5----| |
|-------------------------|---------------------------------| |



================================================================================
Riff 2b: Guitar 2 (Repeat as outlined below)
================================================================================

-------
Part 1:
-------

||-------------------|---------------------|-------------------|
||-------------------|---------------------|-------------------|
||-------------------|---------------------|-------------------|
||--2----------------|--2--------3----2----|--5----------------|
||--2----------------|--2--------3----2----|--3----------------|
||--0----------------|--0--------1----0----|-------------------|


|----------------------|-------------------|---------------------|
|----------------------|-------------------|---------------------|
|----------------------|-------------------|---------------------|
|--4-------------------|--2----------------|--2--------3----2----|
|--2--------3p 2-------|--2----------------|--2--------3----2----|
|-----------------3----|--0----------------|--0--------1----0----|

                                          |_3_|
|-------------------|--------------------------------| |
|-------------------|--------------------------------| |
|-------------------|--------------------------------|*|
|--5----------------|--4-----------------------------|*|  X 2
|--3----------------|--2------2-3-(3/5)-3-2h3p2------| |
|-------------------|---------------------------3----| |



-------
Part 2:
-------


||----------------------|----------------------|-------------------|
||----------------------|----------------------|-------------------|
||----------------------|----------------------|-------------------|
||--2--------9------10\-|--2--------10----9\ --|--5----------------|
||--2-------------------|--2-------------------|--3----------------|
||--0-------------------|--0-------------------|-------------------|

                      |_3_|
|--------------------------------|----------------------|
|--------------------------------|----------------------|
|--------------------------------|----------------------|
|--4-----------------------------|--2--------9------10\-|
|--2------2-3-(3/5)-3-2h3p2------|--2-------------------|
|---------------------------3----|--0-------------------|


|----------------------|-------------------|----------------------|
|----------------------|-------------------|----------------------|
|----------------------|-------------------|----------------------|
|--2--------10----9\---|--5----------------|--4-------------------|
|--2-------------------|--3----------------|--2--------3p 2-------|
|--0-------------------|-------------------|-----------------3----|


|----------------------|----------------------|-------------------|
|----------------------|----------------------|-------------------|
|----------------------|----------------------|-------------------|
|--2--------9------10\-|--2--------10----9\---|--5----------------|
|--2-------------------|--2-------------------|--3----------------|
|--0-------------------|--0-------------------|-------------------|

                      |_3_|
|--------------------------------||
|--------------------------------||
|--------------------------------||
|--4-----------------------------||  X 1
|--2------2-3-(3/5)-3-2h3p2------||
|---------------------------3----||



================================================================================
Riff 3a: Guitar 1 (Play once through)
================================================================================


1                            |_3__|     2                           |_3__|
|--------------------------------------|---------------------------------------|
|--------------------------------------|---------------------------------------|
|--------------------------------------|---------------------------------------|
|--2--(5/7)-9--10\-2--(7/10)-9h10p9-7\-|--2--(5/7)-9--10\-2--(7/10)-9h10p9-----|
|--0---------------0-------------------|--0---------------0----------------10--|
|--------------------------------------|---------------------------------------|
  P.M             ...                    ...             ...


//  Let Ring \\   |_3__|        4
|------------------------------|---------------------------------|
|------------------------------|---------------------------------|
|------------------------------|---------------------------------|
|-----7-----10----9h10p9-7--6--|-------6--7--(7/9)---((9)\6)--7\-|
|--8-----8---------------------|--7------------------------------|
|------------------------------|---------------------------------|

5                            |_3__|     6
|--------------------------------------|--------------------------------|
|--------------------------------------|--------------------------------|
|--------------------------------------|--------------------------------|
|--2--(5/7)-9--10\-2--(7/10)-9h10p9-7\-|--2--(5/7)-9--10--12--10--9--9--|
|--0---------------0-------------------|--0-----------------------------|
|--------------------------------------|--------------------------------|
  ...             ...                    ...
7                                    8
|-----------------------------------|--------------------------------------|
|-----------------------------------|--------------------------------------|
|----------------------------(9/10)-|--9\ ---------------------------------|
|--(9)--10------12----10--9---------|-------10--9h 10p9-7----((7)\6)-(6/7)-|
|-----------10----------------------|--------------------------------------|
|-----------------------------------|--------------------------------------|

9                            |_3__|     10                          |_3__|
|--------------------------------------|---------------------------------------|
|--------------------------------------|---------------------------------------|
|--------------------------------------|---------------------------------------|
|--2--(5/7)-9--10\-2--(7/10)-9h10p9-7\-|--2--(5/7)-9--10\-2--(7/10)-9h10p9-----|
|--0---------------0-------------------|--0---------------0----------------10--|
|--------------------------------------|---------------------------------------|
  ...             ...                    ...             ...


//  Let Ring \\   |_3__|        12
|------------------------------|---------------------------------|
|------------------------------|---------------------------------|
|------------------------------|---------------------------------|
|-----7-----10----9h10p9-7--6--|-------6--7--(7/9)---((9)\6)--7\-|
|--8-----8---------------------|--7------------------------------|
|------------------------------|---------------------------------|

13                           |_3__|     14
|--------------------------------------|--------------------------------|
|--------------------------------------|--------------------------------|
|--------------------------------------|--------------------------------|
|--2--(5/7)-9--10\-2--(7/10)-9h10p9-7\-|--2--(5/7)-9--10--12--10--9--9--|
|--0---------------0-------------------|--0-----------------------------|
|--------------------------------------|--------------------------------|
  ...             ...                    ...

15                                    16
|------------------------------------|--------------------------------------|
|------------------------------------|--------------------------------------|
|------------------------------------|--------------------------------------|
|--(9)--10------12----10--9-----9h10-|--9\ --10--9h 10p9-7----((7)\6)-(6/7)-|
|-----------10-----------------------|--------------------------------------|
|------------------------------------|--------------------------------------|


17                           |_3__|    18                           |_3__|
|--------------------------------------|---------------------------------------|
|--------------------------------------|---------------------------------------|
|--------------------------------------|---------------------------------------|
|--2--(5/7)-9--10\-2--(7/10)-9h10p9-7\-|--2--(5/7)-9--10\-2--(7/10)-9h10p9-----|
|--0---------------0-------------------|--0---------------0----------------10--|
|--------------------------------------|---------------------------------------|
  ...             ...                    ...             ...


//  Let Ring \\   |_3__|        20
|------------------------------|---------------------------------|
|------------------------------|---------------------------------|
|------------------------------|---------------------------------|
|-----7-----10----9h10p9-7--6--|-------6--7--(7/9)---((9)\6)--7\-|
|--8-----8---------------------|--7------------------------------|
|------------------------------|---------------------------------|


21                           |_3__|     22
|--------------------------------------|--------------------------------|
|--------------------------------------|--------------------------------|
|--------------------------------------|--------------------------------|
|--2--(5/7)-9--10\-2--(7/10)-9h10p9-7\-|--2--(5/7)-9--10--12--10--9--9--|
|--0---------------0-------------------|--0-----------------------------|
|--------------------------------------|--------------------------------|
  ...             ...                    ...

23                                   24
|-----------------------------------|--------------------------------------||
|-----------------------------------|--------------------------------------||
|----------------------------(9/10)-|--9\ ---------------------------------||
|--(9)--10------12----10--9---------|-------10--9h 10p9-7----((7)\6)-(6/7)-||
|-----------10----------------------|--------------------------------------||
|-----------------------------------|--------------------------------------||



================================================================================
Riff 3b: Guitar 2 (Play 6 times)
================================================================================


                             |_3__|                                 |_3__|
|--------------------------------------|---------------------------------------|
|--------------------------------------|---------------------------------------|
|--------------------------------------|---------------------------------------|
|--2--(5/7)-9--10\-2--(7/10)-9h10p9-7\-|--2--(5/7)-9--10\-2--(7/10)-9h10p9-----|
|--0---------------0-------------------|--0---------------0----------------10--|
|--------------------------------------|---------------------------------------|
  P.M             ...                    ...             ...


//  Let Ring \\   |_3__|        4
|------------------------------|---------------------------------| |
|------------------------------|---------------------------------| |
|------------------------------|---------------------------------|*|
|-----7-----10----9h10p9-7--6--|-------6--7--(7/9)---((9)\6)--7\-|*|
|--8-----8---------------------|--7------------------------------| |
|------------------------------|---------------------------------| |



================================================================================
Riff 4a: Guitar 1 (Repeat as outlined below)  [Tempo = 70 BPM] [Time Sig = 3/4]
================================================================================


-------
Part 1:
-------


| |----------------|-----------------|------------------|
| |----------------|-----------------|------------------|
|3|--2-------------|-----------------|------------------|
|/|--2-------------|--2--------5-----|--3----------7----|
|4|--0--------5----|--2--------5--2--|--3----------5----|
| |-----------3----|--0--------3--0--|--1------1-1------|
            ...                               ...

|------------------| |
|------------------| |
|---------5--5--4--|*|
|--5------5--5--4--|*|  X 2
|--5------3--3--2--| |
|--3---------------| |



--------------
Part 2 (Lead):
--------------


1                           2                 3
| |------------------------|-----------------|-------------------|
| |------------------------|-----------------|-------------------|
|3|------------------------|-----------------|-------------------|
|/|--7~~-----((7)\5)---7p5-|-----------5\ -2-|--3------2h3-5--7--|
|4|------------------------|--7--------------|-------------------|
| |------------------------|-----------------|-------------------|

4                    |_3__|  5                        6
|---------------------------|------------------------|-----------------|
|---------------------------|------------------------|-----------------|
|---------------------------|------------------------|-----------------|
|--5~~----(7/10)-10--9h10p9-|--7~~-----((7)\5)---7p5-|-----------7\ -2-|
|---------------------------|------------------------|--7--------------|
|---------------------------|------------------------|-----------------|

7                       8               9
|----------------------|---------------|------------------------|
|----------------------|---------------|------------------------|
|----------------------|---------------|------------------------|
|--3------2h3-5--(5/7)-|--5~~----------|--7~~-----((7)\5)---7p5-|
|----------------------|---------------|------------------------|
|----------------------|---------------|------------------------|

10                 11                        12                        |_3__|
|-----------------|-------------------------|---------------------------------|
|-----------------|-------------------------|---------------------------------|
|-----------------|-------------------------|---------------------------------|
|-----------5\ -2-|--3------2h(3/5)--(5/10)-|--10-(9\5)--5--(5/10)-10--9h10p9-|
|--7--------------|-------------------------|---------------------------------|
|-----------------|-------------------------|---------------------------------|

13                        14                15
|------------------------|-----------------|--------------------|
|------------------------|-----------------|--------------------|
|------------------------|-----------------|--------------------|
|--7~~-----((7)\5)---7p5-|-----------5\ -2-|--3------2h3-5--5h7-|
|------------------------|--7--------------|--------------------|
|------------------------|-----------------|--------------------|

16
|------------------||
|------------------||
|------------------||
|--5~---------(5)\-|| X 1
|------------------||
|------------------||



================================================================================
Riff 4b: Guitar 2 (Play 8 times)
================================================================================


||----------------|-----------------|------------------|
||----------------|-----------------|------------------|
||--2-------------|-----------------|------------------|
||--2-------------|--2--------5-----|--3----------7----|
||--0--------5----|--2--------5--2--|--3----------5----|
||-----------3----|--0--------3--0--|--1------1-1------|
            ...                               ...

|------------------| |
|------------------| |
|---------5--5--4--|*|
|--5------5--5--4--|*|
|--5------3--3--2--| |
|--3---------------| |



On the last repeat replace the last bar with the supplement:


        --------------
        | Supplement |
        --------------

        ||------------------||
        ||------------------||
        ||------------------||
        ||--5------2--4--5--||
        ||--5------0--2--3--||
        ||--3---------------||
                   .......



================================================================================
Riff 5a: Guitar 1 (Repeat as outlined below)
================================================================================


-------
Part 1:
-------

              |_3_|                          //    Let Ring    \\
||---------------------|--------------------|--------------------|
||---------------------|--------------------|--------------------|
||---------------------|--------------------|--------------------|
||--2------3--2h3p2-0--|--2-----------------|--------3-----------|
||---------------------|-----3--0--3--2-----|-----3-----3--------|
||---------------------|-----------------0--|--1-----------1--0--|

//     Let Ring    \\             |_3_|
|--------------------|---------------------|--------------------|
|--------------------|---------------------|--------------------|
|--------------------|---------------------|--------------------|
|--------5-----------|--2------3--2h3p2-0--|--2-----------------|
|-----5-----0--2--3--|---------------------|-----3--0--3--2--0--|
|--3-----------------|---------------------|--------------------|


|----------------------|-----------------------------| |
|----------------------|-----------------------------| |
|----------------------|-----------------------------|*|
|----------5--3--2-----|-----------------------------|*|  X 2
|--(2/ 3)-----------3--|--((3)/5)-----((5)\3)--2--3--| |
|----------------------|-----------------------------| |



--------------
Part 2 (Lead):
--------------


1              |_3__|     2                      3
||-----------------------|----------------------|------------------------|
||-----------------------|----------------------|------------------------|
||-----------------------|----------------------|------------------------|
||--7~~----10--9h10p9-7--|--9--10--7--10--9\-2--|--3~~----2h(3/5)--(5/7)-|
||-----------------------|----------------------|------------------------|
||-----------------------|----------------------|------------------------|

4                   5            |_3__|     6
|------------------|-----------------------|----------------------|
|------------------|-----------------------|----------------------|
|------------------|-----------------------|----------------------|
|--5------3--2--3--|--7~~----10--9h10p9-7--|--9--10--7--10--9--7--|
|------------------|-----------------------|----------------------|
|------------------|-----------------------|----------------------|

7                      8                 9            |_3__|
|---------------------|-----------------|-----------------------|
|---------------------|-----------------|-----------------------|
|---------------------|-----------------|-----------------------|
|--9--10----12----10--|--9~~------7--5--|--7~~----10--9h10p9-7--|
|---------------------|-----------------|-----------------------|
|---------------------|-----------------|-----------------------|

10                      11                 12
|----------------------|------------------|--------------------|
|----------------------|------------------|--------------------|
|----------------------|------------------|--------------------|
|--9--10--7--10--9\-2--|--3~~----10----9--|--5------10--10--5--|
|----------------------|------------------|--------------------|
|----------------------|------------------|--------------------|

13            |_3__|     14                     15
|-----------------------|----------------------|---------------------|
|-----------------------|----------------------|---------------------|
|-----------------------|----------------------|---------------------|
|--7~~----10--9h10p9-7--|--9--10--7--10--9--7--|--9--10----12----10--|
|-----------------------|----------------------|---------------------|
|-----------------------|----------------------|---------------------|

16                 17                  18
|-----------------|-------------------|-------------------|
|-----------------|-------------------|-------------------|
|-----------------|--7--9---------10--|--10--9--7----9----|
|--9~~------10----|----------7--------|-------------------|
|-----------------|-------------------|-------------------|
|-----------------|-------------------|-------------------|

19                     20                  21
|---------------------|-------------------|-------------------|
|---------------------|-------------------|-------------------|
|--10------10--12-----|-------------------|--7--9---------10--|
|------------------9--|--9------7--9--10--|----------7--------|
|---------------------|-------------------|-------------------|
|---------------------|-------------------|-------------------|

22                   23                   24
|-------------------|--------------------|---------------------||
|-------------------|--------------------|---------------------||
|--10--9--7----9----|--10------12----10--|--9h  10p9\7------7\-||
|-------------------|--------------------|---------------------|| x 1
|-------------------|--------------------|---------------------||
|-------------------|--------------------|---------------------||



================================================================================
Riff 5b: Guitar 2 (Play 14 times)
================================================================================

              |_3_|                         //    Let Ring     \\
||---------------------|--------------------|--------------------|
||---------------------|--------------------|--------------------|
||---------------------|--------------------|--------------------|
||--2------3--2h3p2-0--|--2-----------------|--------3-----------|
||---------------------|-----3--0--3--2-----|-----3-----3--------|
||---------------------|-----------------0--|--1-----------1--0--|

//     Let Ring    \\
|--------------------| |
|--------------------| |
|--------------------|*|
|--------5-----------|*|
|-----5-----0--2--3--| |
|--3-----------------| |
            ....... *


* The palm mute is applied at random intervals


================================================================================
Guitar 1 plays Part 1 of riff 5a twice, guitar 2 plays riff 5b 4 times
================================================================================


================================================================================
Riff 6a Guitar 1 (Play twice) [This is a variation of riff 1] [Tempo = 65 BPM]
================================================================================


| |--------------------|------------------------------|--------------------|
| |--------------------|---------R -------------------|--------------------|
|4|--------------------|---------E -------------------|--------------------|
|/|--2--------2--------|--(4/ 5)-S -5------(5/7)--(7)\|--2--------3--------|
|4|--0--------2--------|--(2/ 3)-T -3-----------------|--------------------|
| |--------------------|------------------------------|--------------------|


|----------------------| |
|----------------------| |
|----------------------|*|
|------5---------------|*|
|--3-------3--2--------| |
|----------------------| |



================================================================================
Riff 6b: Guitar 2 (Play twice) [This is a variation of riff 1]
================================================================================


||--------------------|---------------------------|--------------------|
||--------------------|---------R ----------------|--------------------|
||--------------------|---------E ----------------|--------------------|
||--2--------2--------|--(4/ 5)-S -5------(5/7)---|--2--------3--------|
||--0--------2--------|--(2/ 3)-T -3------(3/5)---|-----------1--------|
||--------------------|---------------------------|--------------------|


|--------------------| |
|--------------------| |
|--------------------|*|
|--3--------2--------|*|
|--3--------2--------| |
|--1--------0--------| |



================================================================================
Riff 7a: Guitar 1 (Play once) [This is a variation of riff 3]
================================================================================


                             |_3__|                                 |_3__|
|--------------------------------------|---------------------------------------|
|--------------------------------------|---------------------------------------|
|--------------------------------------|---------------------------------------|
|--2--(5/7)-9--10\-2--(7/10)-9h10p9-7\-|--2--(5/7)-9--10\-2--(7/10)-9h10p9-----|
|--0---------------0-------------------|--0---------------0----------------10--|
|--------------------------------------|---------------------------------------|
  ...             ...                    ...             ...

//  Let Ring \\   |_3__|
|------------------------------|---------------------------------|
|------------------------------|---------------------------------|
|------------------------------|---------------------------------|
|-----7-----10----9h10p9-7--6--|-------6--7--(7/9)---((9)\6)--7\-|
|--8-----8---------------------|--7------------------------------|
|------------------------------|---------------------------------|

                             |_3__|
|--------------------------------------|--------------------------------|
|--------------------------------------|--------------------------------|
|--------------------------------------|--------------------------------|
|--2--(5/7)-9--10\-2--(7/10)-9h10p9-7\-|--2--(5/7)-9--10--12--10--9--9--|
|--0---------------0-------------------|--0-----------------------------|
|--------------------------------------|--------------------------------|
  ...             ...                    ...

|------------------------------------|--------------------------------------|
|------------------------------------|--------------------------------------|
|------------------------------------|--------------------------------------|
|--(9)--10------12----10--9-----9h10-|--9\ --10--9h 10p9-7----((7)\6)-(6/7)-|
|-----------10-----------------------|--------------------------------------|
|------------------------------------|--------------------------------------|



Guitar 2 plays riff 3b twice during this riff



================================================================================
Riff 8a: Guitar 1 (Play once)
================================================================================


||----------------------|------------------------------|
||----------------------|------------------------------|
||----------------------|------------------------------|
||--7~~-----------10----|------------------------------|
||-----------8----------|--7------((7)\5)-5--7--7h8-7--|
||----------------------|------------------------------|


|---------------------------------|----------------------|
|---------------------------------|----------------------|
|---------------------------------|----------------------|
|------------6--7--(7/9)----6h  7-|--7~~-----------10----|
|--(7)--(7)\----------------------|-----------8----------|
|---------------------------------|----------------------|

                                             |_3__|
|------------------------------|------------------------------------||
|------------------------------|------------------------------------||
|------------------------------|------------------------------------||
|------------------------------|---------10--9h10p9-7---((7)\6)h  7-||
|--7------((7)\5)-5--7--7h8-7--|--(7)-------------------------------||
|------------------------------|------------------------------------||



================================================================================
Riff 8b: Guitar 2 (Play once)
================================================================================


||---------------------|-------------------------|
||---------------------|-------------------------|
||---------------------|-------------------------|
||--2-------------3----|--2------0--0--2--2h3-2--|
||--0--------3----3----|--2------0--0--2--2h3-2--|
||-----------1---------|--0----------------------|


|----------------------------|---------------------|-------------------------|
|----------------------------|---------------------|-------------------------|
|----------------------------|---------------------|-------------------------|
|--2-------------------------|--2-------------3----|--2------0--0--2--2h3-2--|
|--2-------------------------|--0--------3----3----|--2------0--0--2--2h3-2--|
|--0----4--5--(5/7)----4h 5--|-----------1---------|--0----------------------|

           |_3_|
|---------------------------||
|---------------------------||
|---------------------------||
|--2------------------------||
|--2------------------------||
|--0----8--7h8p7-5----4h 5--||



================================================================================
Guitar 1 plays riff 7a once, guitar 2 plays riff 3b twice
================================================================================

================================================================================
Guitars 1 and 2 plays riffs 8a and 8b once
================================================================================

================================================================================
Guitar 1 plays riff 7a once, guitar 2 plays riff 3b twice
================================================================================

================================================================================
Riff 9: Guitars 1 and 2 (Play 4 times) [This is a variation of riff 4]
================================================================================


| |----------------|-----------------|------------------|
| |----------------|-----------------|------------------|
|3|--2-------------|-----------------|------------------|
|/|--2-------------|--2--------5-----|--3----------7----|
|4|--0--------5----|--2--------5--2--|--3----------5----|
| |-----------3----|--0--------3--0--|--1------1-1------|
             ...                               ...

                |_3_|
|---------------------| |
|---------------------| |
|---------5--5--4    -|*|
|--5------5--5--4    -|*|
|--5------3--3--2h3p2-| |
|--3------------------| |



================================================================================
Riff 10a: Guitar 1 (Play 4 times)
================================================================================


||----------------------|----------------------|-----------------------|
||----------------------|----------------------|-----------------------|
||----------------------|----------------------|-----------------------|
||--2--------9------10\-|--2--------10----9\---|--5-------------(5/9)--|
||--2-------------------|--2-------------------|-----------------------|
||--0-------------------|--0-------------------|-----------------------|


|-----------------------------|----------------------|----------------------|
|-----------------------------|----------------------|----------------------|
|-----------------------------|----------------------|----------------------|
|--9\-4----4h5-(5/7)------(7)\|--2--------9------10\-|--2--------10----9\---|
|-----------------------------|--2-------------------|--2-------------------|
|-----------------------------|--0-------------------|--0-------------------|

                                               |_3_|
|-----------------------|---------------------------------| |
|-----------------------|---------------------------------| |
|-----------------------|---------------------------------|*|
|--5-------------(5/9)--|--9\-4----4h5-(5/7)-5-4h5p4------|*|
|-----------------------|----------------------------5----| |
|-----------------------|---------------------------------| |



After the first repeat replace the first two bars with the supplement:


        -----------
        Supplement:
        -----------


        ||-----------------------|-----------------------||
        ||-----------------------|-----------------------||
        ||-----------------------|-----------------------||
        ||--2---------9------10\-|--2---------10----9\---||
        ||--2------2-------------|--2------2-------------||
        ||--0------0-------------|--0------0-------------||
                  ...                     ...



================================================================================
Riff 10b: Guitar 2 (Play 4 times)
================================================================================


||----------------------|----------------------|-------------------|
||----------------------|----------------------|-------------------|
||----------------------|----------------------|-------------------|
||--2--------9------10\-|--2--------10----9\---|--5----------------|
||--2-------------------|--2-------------------|--3----------------|
||--0-------------------|--0-------------------|-------------------|


|----------------------|----------------------|----------------------|
|----------------------|----------------------|----------------------|
|----------------------|----------------------|----------------------|
|--4-------------------|--2--------9------10\-|--2--------10----9\---|
|--2--------3p 2-------|--2-------------------|--2-------------------|
|-----------------3----|--0-------------------|--0-------------------|

                                          |_3_|
|-------------------|--------------------------------| |
|-------------------|--------------------------------| |
|-------------------|--------------------------------|*|
|--5----------------|--4-----------------------------|*|
|--3----------------|--2------2-3-(3/5)-3-2h3p2------| |
|-------------------|---------------------------3----| |



================================================================================
Outro: Guitars 1 and 2 (Play once)
================================================================================


||-----------||
||-----------||
||-----------||
||--2--------||
||--2--------||
||--0--------||



Hold this chord for 2 bars (during which the tempo gradually decreases to
30 BPM).  After this, strike the chord again and hold it until the song fades
out.



================================================================================
End
================================================================================


Tab summary:        Intro x 2
                    Riffs 1b + 1b x 3
                    Riff 2a x 4 + Riff 2b (Pt. 1 x 1, Pt. 2 x 1)
                    Riff 5a (Pt. 1 x 2, Pt. 2 x 1) +  Riff 5b x 14
                    Riff 5a Pt. 1 x 2 + Riff 5b x 4
                    Riff 6a + 6b x 2
                    Riff 7a x 1 + Riff 3b x 2
                    Riff 8a + 8b x 1
                    Riff 7a x 1 + Riff 3b x 2
                    Riff 8a + 8b x 1
                    Riff 7a x 1 + Riff 3b x 2
                    Riff 9 x 4
                    Riff 10a + 10b x 4
                    Outro x 1

                    END


-----------------------
Corrections (29/10/05):
-----------------------

* Fixed incorrect slide directions

  Visit MetalTabs.com for more metal tablature

bottom separator

Contact Us | Privacy Policy | Disclaimer | Legal Notice
Copyright © 2001-2014 MetalTabs.com. All Rights Reserved.