#----------------------------------PLEASE NOTE---------------------------------#
#This file is the author's own work and represents their interpretation of the #
#song. You may only use this file for private study, scholarship, or research. #
#Unless specified otherwise, this is NOT an official tab from the band members.#
#------------------------------------------------------------------------------#

  Visit MetalTabs.com for more metal tablature
  
--- VOMIT REMNANTS ---
                                "00 Buck Shot"
                     From album: "Indefensible Vehemence"
                     Copyright Macabre Mementos 2002 
                     Version 2.0 (September'05)
                     Transcribed by: Yura Kowalchuk
                     Contact:[yura@grindcore.net]
                             [yura_kowalchuk@mail.ru]
                     HOME PAGE:http://www.blood-scrapes.nm.ru
                               http://brutaltabs.musica.mustdie.ru

                            TABULATURE LEGEND:
                   " - tremolo             h - hammer on
                   ~ - vibrato             \ - slide down
                   p - pull off            / - slide down
                  tr - tremolo picking     ^ - pinch harmonics
                   = - sustained note      b - bend string
                p.m. - palm muting         t - tapping

TUNING INFO: Vomit Remnants use 7 string guitars since this EP,
anyway I transcribe it as 6-string tuned to B (B,E,A,d,gb,b).

[Intro]
|-----------------------------|
|-----------------------------|
|-----------------------------|
|-----------------------5--4--|
|-2-2-2---4/5\4-444-----3--2--|
|-0-0-0-0-2/3\2-----333-3--2--|
| . . . .       ... ...       |
|-----------------------------|
|-----------------------------|
|-----------------------------|
|-----------------------5--4--|
|-2-2-2-----------------3--2--|
|-0-0-0-----------------3--2--|
  . . .

[Riff 1 (x8)]                          [Break]
||-----------------------------------||---------------------|
||o---------------------------------o||---------------------|
||-----------------------------------||---------------------|
||------------------------------5\4--||-2-------------------|
||o---4---5---4---5---4---5---4-3\2-o||-2-------------------|
||--0-2-0-3-0-2-0-3-0-2-0-3-0-2------||-0------------11\----|
    . . . . . . . . . . . . . .         .

[Riff 2 (x4)]
||--------------------|----------------------||
||o-------------------|---------------------o||
||--------------------|----------------------||
||--------------------|------------------^---||
||o-4--5--4--5--4--5--|-4-4-5-5-4--5--4--3~-o||
||--2--3--2--3--2--3--|-2-2-3-3-2--3--2------||
    .  .  .  .  .  .    . . . . .  .  .

[Riff 3 (x4)]
||-----------------------------------------------------||
||o---------------------------------------------------o||
||-----------------------------------------------------||
||-----------------------------------------------------||
||o-4--5-5-4--5-5-4-4-5-5-4--5-5-4--4--5-5-4-5555-----o||
||--2--3-3-2--3-3-2-2-3-3-2--3-3-2--2--3-3-2-----4444--||
    .  . . .  . . . . . . .  . . .  .  . . .

[RIFF 2 (x4)]

[Outro A]
|-------------------|---------------------------|
|-------------------|---------------------------|
|-------------------|---------------------------|
|-------------------|---------------------------|
|-------------------|---------------------------|
|-------------------|---------------------------|
|                   |                           |
|-------------------|---------------------------|
|-------------------|---------------------------|
|-------------------|---------------------------|
|-------------------|------------------^--------|
|-4--5--4--5--4--5--|-4-4-5-5-4--5--4--3~~~~~~--|
|-2--3--2--3--2--3--|-2-2-3-3-2--3--2-----------|
  .  .  .  .  .  .    . . . . .  .  .

[RIFF 3 (x4)] /break\

[Riff 4 (x4)]
||--------------------------------||
||o------------------------------o||
||--------------------------------||
||--------------------------------||
||o----------4----5----4-5-4-2-3-o||
||--00001--0-2--0-3--0-2-3-2-0-1--||
    .....  . .  . .  . . . . . .

[Riff 5 (x4)]
||---------------------------------||
||o-------------------------------o||
||---------------------------------||
||--^------------------------------||
||o-3~--------4----5----4-5-4-2-3-o||
||-----0000-0-2--0-3--0-2-3-2-0-1--||
            . .  . .  . . . . . .

[Outro B]
|-----------------------------|
|-----------------------------|
|-----------------------------|
|-----------------------------|
|---4----5----4----5--5-4-5-3-|
|-0-2--0-3--0-2--0-3--3-2-3-1-|
  . .  . .  . .  . .  . . . .

[Riff 6 (x4)]
||----------------------------------|-
||o---------------------------------|-
||----------------------------------|-
||----------------------------------|-
||o---5-4---3---------5-4---3-------|-
||--3-----5---5-4-5-3-----5---5-3-2-|-
    . . . . . . . . . . . . . . . .

-|-----------------|--------------------------||
-|-----------------|-------------------------o||
-|-----------------|--------------------------||
-|-----------------|----7--6-----5--4---------||
-|---5-4---3-------|-5--5--4--6--3--2--5--6--o||
-|-3-----5---5-4-5-|-3--------4--------3--4---||
   . . . . . . . .   .  .  .  .  .  .  .  .

[Outro C]     [Riff 7 (x3)]
|-------------||------------------|--------------------------------|-
|-------------||o-----------------|--------------------------------|-
|-------------||------------------|--------------------------------|-
|-------------||------------------|--------------------------------|-
|-5-4-5/6-----||o-5-4-5/6-5-4-5\4-|-5-4-5/6--6-5-4-5-4-5/6-5-4-5\4-|-
|-3-2-3/4-----||--3-2-3/4-3-2-3\2-|-3-2-3/4--4-3-2-3-2-3/4-3-2-3\2-|-
| . .         |   . .     . .     | . .            . .     . .     |
|-------------||------------------|--------------------------------|-
|-------------||o-----------------|--------------------------------|-
|-------------||------------------|--------------------------------|-
|-------------||------------------|--------------------------------|-
|-------------||o-5-4-5/6-5-4-5\4-|-5-4-5/6--6-5-4-5-4-5/6-5-4-5\4-|-
|-------------||--3-2-3/4-3-2-3\2-|-3-2-3/4--4-3-2-3-2-3/4-3-2-3\2-|-
                  . .     . .       . .            . .     . .

-|---------------------||
-|--------------------o||
-|---------------------||
-|---------------------||
-|-5-4-5/6-5h/6-5-4-3-o||
-|-3-2-3/4-3h/4-3-2-1--||
 | . .                  |
-|---------------------||
-|--------------------o||
-|---------------------||
-|---------------------||
-|-5-4-5/6-5h/6-5-4-3-o||
-|-3-2-3/4-3h/4-3-2-1--||
   . .

[Outro D]
|------------------------------|------------------------------|-
|------------------------------|------------------------------|-
|------------------------------|------------------------------|-
|------------------------------|----------------------------4-|-
|-2------4/5---2---2-----4/5-3-|-2------4/5---2---2-----4/5-2-|-
|-0--0-0-2/3-0-0-0-0-0-0-2/3-1-|-0--0-0-2/3-0-0-0-0-0-0-2/3---|-
|    . .     .   .   . .       |    . .     .   .   . .       |
|------------------------------|------------------------------|-
|------------------------------|------------------------------|-
|------------------------------|------------------------------|-
|------------------------------|------------------------------|-
|------------------------------|------------------------------|-
|------------------------------|------------------------------|-

-|------------------------------|-----------------------------|
-|------------------------------|-----------------------------|
-|------------------------------|-----------------------------|
-|------------------------------|-----------------------------|
-|-2------4/5---2---2-----4/5-3-|-2------4/5---2---2-----3----|
-|-0--0-0-2/3-0-0-0-0-0-0-2/3-1-|-0--0-0-2/3-0-0-0-0-0-0-1----|
 |    . .     .   .   . .       |    . .     .   .   . . .    |
-|------------------------------|-----------------------------|
-|------------------------------|-----------------------------|
-|------------------------------|-----------------------------|
-|------------------------------|-----------------------------|
-|------------------------------|-------------------------3---|
-|-0"..-000-0-0-000-0-0-0-0-0-0-|-000-0-0-000-0-0-000-0-0-1---|
        ... . . ... . . . . . .   ... . . ... . . ... . . .

[Riff 8 (x2)]
||--------------------------|-------------------------|-
||o-------------------------|-------------------------|-
||--------------------------|-------------------------|-
||--------------------------|-------------------------|-
||o-----------------5---6---|-----------------5---6---|-
||--000-0-0-000-0-0-3-0-4-0-|-000-0-0-000-0-0-3-0-4-0-|-
    ... . . ... . .   .   .   ... . . ... . .   .   .

-|-------------------------|---------------------------------||
-|-------------------------|--------------------------------o||
-|-------------------------|---------------------------------||
-|-------------------------|-----------------5\4-------------||
-|-----------------5---6---|-----------------3\2---4-5---4--o||
-|-000-0-0-000-0-0-3-0-4-0-|-000-0-0-000-0-0-----0-2-3-0-2---||
   ... . . ... . .   .   .   ... . . ... . .     . . . .

[Riff 9 (x2)]
||--------------------------------|--------------------------------||
||o-------------------------------|-------------------------------o||
||--------------------------------|--------------------------------||
||--------------------------------|----------------------------4---||
||o-2------4/5---2---2-----4/5-3--|-2------4/5---2---2-----4/5-2--o||
||--0--0-0-2/3-0-0-0-0-0-0-2/3-1--|-0--0-0-2/3-0-0-0-0-0-0-2/3-----||
       . .     .   .   . .             . .     .   .   . .

[RIFF 8]

END OF SONG

  Visit MetalTabs.com for more metal tablature