top separator

Home

Forum

What's New

Submit a Tab

FAQ

Links

Contact Us

Link to Us

MetalTabs.com logo

Bands

0-9

A

B

C

D

E

F

G

H

I

J

K

L

M

N

O

P

Q

R

S

T

U

V

W

X

Y

Z

Search

What

Where
 

It Dies Today - "My Promise" Guitar Tab

Plain Text Version
More It Dies Today Tabs

Hits: 4697
Updated: 2005-10-04 22:25:16

 

By:

SicSyco

sendpm.gif

email.gif

Important note
We did our best to reach It Dies Today and ask for their permission to publish this tab. Unfortunately they did not respond to our requests or we could not find a way to contact them. This tab is available online until It Dies Today tells us to take it down.


#----------------------------------PLEASE NOTE---------------------------------#
#This file is the author's own work and represents their interpretation of the #
#song. You may only use this file for private study, scholarship, or research. #
#Unless specified otherwise, this is NOT an official tab from the band members.#
#------------------------------------------------------------------------------#

  Visit MetalTabs.com for more metal tablature
  
Band:  It Dies Today
Album: The Caitiff Choir
Song:  My Promise

Copyright (c)  Trustkill 2004
Version 1.0 - 8/12/05

Transcribed By: SicSyco
Email:          mrblack420@msn.com
.  - palm mute           /  - slide up to
\  - slide down to       ~  - vibrato
h  - hammer on           b  - Bend
p  - pull off            Suffixes for bend
t  - tap                 f  - full bend    h - half bend
ph - pinched harmonic    q  - quarter bend t - tap bend
*  - see comment         ^  - Hold bend    r release bend
x  - Stuccatto           ~  - vibrato bend
,  - slight palm mute    () - ghost note, sustained note
"  - tremolo note        <> - Trill


other It Dies Today tabs on the web are in dropped C but
they DO NOT play in dropped C, but tuned TO C. Only my crappy
band and your crappy band actually play in dropped tuning

Tuning ( C F A# D# G C)
Intro Riff  (Gtr 1 & 2)
|----------------------------------------------------------|
|----------------------------------------------------------|
|---------------------------ph-----------------------------|
|----------------------------1~----------------------------|
|-222222-222222-222-22-22-22----222222-222222-222-22-22-22-|
|-000000-000000-000-00-00-00----000000-000000-000-00-00-00-|
  ...... ...... ... .. .. ..    ...... ...... ... .. .. ..

|------------------------------|
|------------------------------|
|------------------------------|
|----------------------------2~|
|-222222-222222-222-22-22-22-2~|
|-000000-000000-000-00-00-00-0~|
  ...... ...... ... .. .. ..

Riff 1 ( Gtr 1 & 2)
|----------------------------------------------------------|
|----------------------------------------------------------|
|----------------------------------------------------------|
|-3----3---3/6----------3-----------5-------6---5---9/12-6-|
|-3----3---3/6----6-----------7-------------6---5---9/12-6-|
|-1-00-1-0-1/4-00---5-0---3-0---8-5---4-000-4-0-3-0-7/10-4-|
    ..         ..     .     .           ...   .   .

Riff 2a (Chorus Gtr 1 & 2 first 2 times)
|-------------------------------------------------------------|
|-------------------------------------------------------------|
|-------------9---10-10----9--10--13-13-----9--10--10---------|
|-5-3-8-4-----x---x--x-----x---x---x-x------x---x---x-5-3-8-4-|
|-5-3-8-4-----7---8--8-----7---8--11-11-----7---8---8-5-3-8-4-|
|-3-1-6-2-000---0------000---0---0------000---0---0---3-1-6-2-|
          ...   .      ...   .   .      ...   .   .

Riff 2b (Gtr 2 3rd and 4th times)
|----------------------------------------------------|
|----------------------------------------------------|
|-----6---7-7-----6---7--10-10-----6---7---7---------|
|-----x---x-x-----x---x---x--x-----x---x---x-5-3-8-4-|
|-----4---5-5-----4---5---8--8-----4---5---5-5-3-8-4-|
|-000---0-----000---0---0------000---0---0---3-1-6-2-|
  ...   .     ...   .   .      ...   .   .

Riff 3
 Gtr 1      Gtr 2
|----------|--------------|
|----------|--------------|
|------12~-|-------9~--8~-|
|-2~----x~-|-2~----x~--x~-|
|-2~---10~-|-2~----7~--6~-|
|-0~-------|-0~-----------|

Riff 4 (Gtr 1)
|-------------------------------------------------------------------------|
|-------------------------------------------------------------------------|
|---------------------------------------------------------------9-9-10-10-|
|-----------------------------66-55-----------------------------x-x--x--x-|
|-2---2---2---2-------2---2---66-66-2---2---2---2-------2---2---7-7--8--8-|
|-0-0-0-0-0-0-0-0-000-0-0-0-0-44-33-0-0-0-0-0-0-0-0-000-0-0-0-0-----------|
    .   .   .   . ...   .   .         .   .   .   . ...   .   .

|---------------------------------------------------------------------|
|---------------------------------------------------------------------|
|---------------------------------------------------------------------|
|-----------------------------66-55-----------------------------6-3-2-|
|-2---2---2---2-------2---2---66-66-2---2---2---2-------2---2---6-3-2-|
|-0-0-0-0-0-0-0-0-000-0-0-0-0-44-33-0-0-0-0-0-0-0-0-000-0-0-0-0-4-1-0-|
    .   .   .   . ...   .   .         .   .   .   . ...   .   .

Riff 4 (Gtr 2)
|-----------------------------------------------------------------------|
|-----------------------------------------------------------------------|
|---------------------------------------------------------------6-6-7-7-|
|-----------------------------66-55-----------------------------x-x-x-x-|
|-2---2---2---2-------2---2---66-66-2---2---2---2-------2---2---4-4-5-5-|
|-0-0-0-0-0-0-0-0-000-0-0-0-0-44-33-0-0-0-0-0-0-0-0-000-0-0-0-0---------|
    .   .   .   . ...   .   .         .   .   .   . ...   .   .

|---------------------------------------------------------------------|
|---------------------------------------------------------------------|
|---------------------------------------------------------------------|
|-----------------------------66-55-----------------------------6-3-2-|
|-2---2---2---2-------2---2---66-66-2---2---2---2-------2---2---6-3-2-|
|-0-0-0-0-0-0-0-0-000-0-0-0-0-44-33-0-0-0-0-0-0-0-0-000-0-0-0-0-4-1-0-|
    .   .   .   . ...   .   .         .   .   .   . ...   .   .

Riff 5
|------------------------|
|------------------------|
|------------------------|
|------------------6-3-2-|
|-3-3--3-3-3-3-3---6-3-2-|
|-0-0--0-0-0-0-0---4-1-0-|
  . .  . . . . .

Riff 6
|--------------------------------------------------------|
|--------------------------------------------------------|
|--------------------------------------------------------|
|--------------------------------------------------------|
|-5-3-2-6-5-3--------------5-3-2-5-3-2-6-5-3-------------|
|-3-1-0-4-3-1-0-0-0-0-0-0--3-1-0-3-1-0-4-3-1-0-0-0-0-0-0-|
  . . . . . .              . . . . . . . . .
|---------------------------------------------------------------|
|---------------------------------------------------------------|
|---------------------------------------------------------------|
|---------------------------------------------------------------|
|-5-3-2--------------5-3-2-6-5-3--------------5-3-2-------------|
|-3-1-0-0-0-0-0-0-0--3-1-0-4-3-1-0-0-0-0-0-0--3-1-0-0-0-0-0-0-0-|
  . . .              . . . . . .              . . .

|--------------------------------------------------------|
|--------------------------------------------------------|
|--------------------------------------------------------|
|--------------------------------------------------------|
|-5-3-2-5-3-2-6-5-3--------------5-3-2-6-5-3-------------|
|-3-1-0-3-1-0-4-3-1-0-0-0-0-0-0--3-1-0-4-3-1-0-0-0-0-0-0-|
  . . . . . . . . .              . . . . . .

|--------------------------------------------|
|--------------------------------------------|
|--------------------------------------------|
|--------------------------------------------|
|-5-3-2--------------5-3-2-5-3-2-5-3-2-6-5-3-|
|-3-1-0-0-0-0-0-0-0--3-1-0-3-1-0-3-1-0-4-3-1-|
  . . .              . . . . . . . . . . . .

Riff 7 (Breakdown)
|---------------------------------------------------------------------|
|---------------------------------------------------------------------|
|---------------------------------------------------------------------|
|---------------------------------------------------------------------|
|-22-222--222-2-2-2-2-222-2-2-2-222----222--22-222-2-222-2-2-2-222-22-|
|-00-000--000-0-0-0-0-000-0-0-0-000----000--00-000-0-000-0-0-0-000-00-|
  .. ...  ... . . . . ... . . . ...    ...  .. ... . ... . . . ... ..

  Visit MetalTabs.com for more metal tablature

bottom separator

Contact Us | Privacy Policy | Disclaimer | Legal Notice
Copyright © 2001-2014 MetalTabs.com. All Rights Reserved.