top separator

Home

Forum

What's New

Submit a Tab

FAQ

Links

Contact Us

Link to Us

MuSpy.com

MetalTabs.com logo

Bands

0-9

A

B

C

D

E

F

G

H

I

J

K

L

M

N

O

P

Q

R

S

T

U

V

W

X

Y

Z

Search

What

Where
 

Tsjuder - "Ghoul" Guitar Tab

Plain Text Version
More Tsjuder Tabs

Hits: 7082
Rated: 5.00 out of 5 (3 votes)
Updated: 2005-10-04 22:25:27

 

By:

[Nocturno_Culto]

sendpm.gif

email.gif

Important note
This tab is available online because we obtained explicit permission from Tsjuder or their label.


#----------------------------------PLEASE NOTE---------------------------------#
#This file is the author's own work and represents their interpretation of the #
#song. You may only use this file for private study, scholarship, or research. #
#Unless specified otherwise, this is NOT an official tab from the band members.#
#------------------------------------------------------------------------------#

  Visit MetalTabs.com for more metal tablature
  
Band:  Tsjuder
Album: Desert Northern Hell (2004)
Song:  Ghoul

Transcribed By: [Nocturno_Culto]
Email: Slash_66612hotmail.com / We_must_dominate@hotmail.com


.  - palm mute           /  - slide up to
  - slide down to       ~  - vibrato
h  - hammer on           b  - Bend
p  - pull off            Suffixes for bend
t  - tap                 f  - full bend    h - half bend
ph - pinched harmonic    q  - quarter bend t - tap bend
*  - see comment         ^  - Hold bend    r release bend
x  - Stuccatto           ~  - vibrato bend
,  - slight palm mute    () - ghost note, sustained note
"  - tremolo note        <> - Trill

Tuning E A D G B E

important: Riffs Wich Not End In |, Continues Below and repeats are From "*" to
The End Of The Riff

Tempo: 210

Intro

|-----------------------------|
|-----------------------------|
|-----------------------------|
|-----------------------------|
|-----------------------------|x8
|-0-------1---0---2---0---3---|
  "       "   "   "   "   "
|-----------------------------|
|-----------------------------|
|-----------------------------|
|-----------------------------|
|-0-------1---0---2---0---3---|x4
|-"-------"---"---"---"---"---|

|-----------------------------|
|-----------------------------|
|-----------------------------|
|-----------------------------|
|-----------------------------|x4
|-0-------1---0---2---0---3---|
  "       "   "   "   "   "

Let Ring
*
|-------------------------------------------------------
|-------------------------------------------------------
|----------------------5-----8-----5--------------------
|---------------6-------------------------6-------------
|--------7---------------------------------------7------
|-0-----------------------------------------------------

|-------------------------------------------------------|
|-------------------------------------------------------|
|----------------------8-----9-----8--------------------|
|---------------6-------------------------6-------------|
|--------7---------------------------------------7------|x2
|-0-----------------------------------------------------|

Verse 1
|-------------------------------------------------------|
|-------------------------------------------------------|
|----------------------6-----9-----6--------------------|
|---------------7------"-----"-----"------7-------------|
|-8-------------"-------------------------"------8------|x2
|-"----------------------------------------------"------|


|-------------------------------------------------------|
|-------------------------------------------------------|
|----------------------5-----8-----5--------------------|
|---------------6------"-----"-----"------6-------------|
|--------7------"-------------------------"------7------|x2
|-0------"---------------------------------------"------|
  "


|-------------------------------------------------------|
|-------------------------------------------------------|
|----------------------6-----9-----6--------------------|
|---------------7------"-----"-----"------7-------------|
|-8-------------"-------------------------"------8------|
|-"----------------------------------------------"------|

Intro Again

|-----------------------------|
|-----------------------------|
|-----------------------------|
|-----------------------------|
|-----------------------------|x8
|-0-------1---0---2---0---3---|
  "       "   "   "   "   "
|-----------------------------|
|-----------------------------|
|-----------------------------|
|-----------------------------|
|-0-------1---0---2---0---3---|x4
|-"-------"---"---"---"---"---|

|-----------------------------|
|-----------------------------|
|-----------------------------|
|-----------------------------|
|-----------------------------|x4
|-0-------1---0---2---0---3---|
  "       "   "   "   "   "


|---------------------------|
|---------------------------|
|---------------------------|
|-10-----------9------------|
|-8------------7------------|x2
|-"------------"------------|

Half Time Part


|-----------------------------------------------|
|-----------------------------------------------|
|-----------------------------------------------|
|-----------------------------------------------|
|-2--2--2--2--2--2--8----2--2--2--2--2--2--5----|x4
|-0--0--0--0--0--0--6----0--0--0--0--0--0--3----|


Guitar 2 here plays just an E power chord  with Tremolo Picking,
I'm Not 100% sure of this Part But It Sounds
|-----------------------------------------|
|-----------------------------------------|
|-----------------------------------------|
|-8---------8---------6---------6---------|
|-"----7----"----7----"----7----"----7----|x2
|------"---------"---------"---------"----|


*
|----------------------------------------
|----------------------------------------
|----------------------------------------
|----------------------------------------
|-2----2--2--2--2--2--2--2--2--2--8-8----
|-0----0--0--0--0--0--0--0--0--0--6-6----


|----------------------------------------|
|----------------------------------------|
|----------------------------------------|
|----------------------------------------|
|-2----2--2--2--2--2--2--2--2--2--3-3----|x2
|-0----0--0--0--0--0--0--0--0--0--5-5----|



|---------------------------|
|---------------------------|
|---------------------------|
|-10-----------9------------|
|-8------------7------------|x2
|-"------------"------------|


|-----------------------------------------|
|-----------------------------------------|
|-----------------------------------------|
|-----------------------------------------|
|-2----2--2----8------2----2--2----5------|x4
|-0----0--0----6------0----0--0----3------|


|-----------------------------------------|
|-----------------------------------------|
|-----------------------------------------|
|-8---------8---------6---------6---------|
|-"----7----"----7----"----7----"----7----|x2
|------"---------"---------"---------"----|


*
|----------------------------------------
|----------------------------------------
|----------------------------------------
|----------------------------------------
|-2----2--2--2--2--2--2--2--2--2--8-8----
|-0----0--0--0--0--0--0--0--0--0--6-6----


|----------------------------------------|
|----------------------------------------|
|----------------------------------------|
|----------------------------------------|
|-2----2--2--2--2--2--2--2--2--2--3-3----|x2
|-0----0--0--0--0--0--0--0--0--0--5-5----|


*
|-------------------------------------------------------------------
|-------------------------------------------------------------------
|-------------------------------------------------------------------
|-------------------------------------------------------------------
|-2--------------5--------------2--------------6-------5------------
|-0--------------3--------------0--------------4-------3------------
  "              "              "              "       "


|-------------------------------------------------------------------|
|-------------------------------------------------------------------|
|-------------------------------------------------------------------|
|-------------------------------------------------------------------|
|-2--------------5--------------2--------------3-------4------------|x4
|-0--------------3--------------0--------------1-------2------------|
  "              "              "             No Tremolo Here



Let Ring
*
|-------------------------------------------------------
|-------------------------------------------------------
|----------------------5-----8-----5--------------------
|---------------6-------------------------6-------------
|--------7---------------------------------------7------
|-0-----------------------------------------------------

|-------------------------------------------------------|
|-------------------------------------------------------|
|----------------------8-----9-----8--------------------|
|---------------6-------------------------6-------------|
|--------7---------------------------------------7------|x2
|-0-----------------------------------------------------|

Verse 1
|-------------------------------------------------------|
|-------------------------------------------------------|
|----------------------6-----9-----6--------------------|
|---------------7------"-----"-----"------7-------------|
|-8-------------"-------------------------"------8------|x2
|-"----------------------------------------------"------|


|-------------------------------------------------------|
|-------------------------------------------------------|
|----------------------5-----8-----5--------------------|
|---------------6------"-----"-----"------6-------------|
|--------7------"-------------------------"------7------|x2
|-0------"---------------------------------------"------|
  "


|-------------------------------------------------------|
|-------------------------------------------------------|
|----------------------6-----9-----6--------------------|
|---------------7------"-----"-----"------7-------------|
|-8-------------"-------------------------"------8------|
|-"----------------------------------------------"------|

Intro Again

|-----------------------------|
|-----------------------------|
|-----------------------------|
|-----------------------------|
|-----------------------------|x8
|-0-------1---0---2---0---3---|
  "       "   "   "   "   "
|-----------------------------|
|-----------------------------|
|-----------------------------|
|-----------------------------|
|-0-------1---0---2---0---3---|x4
|-"-------"---"---"---"---"---|

|-----------------------------|
|-----------------------------|
|-----------------------------|
|-----------------------------|
|-----------------------------|x4
|-0-------1---0---2---0---3---|
  "       "   "   "   "   "


*
|-------------------------------------------------------------------
|-------------------------------------------------------------------
|-------------------------------------------------------------------
|-------------------------------------------------------------------
|-2--------------5--------------2--------------6-------5------------
|-0--------------3--------------0--------------4-------3------------
  "              "              "              "       "


|-------------------------------------------------------------------|
|-------------------------------------------------------------------|
|-------------------------------------------------------------------|
|-------------------------------------------------------------------|
|-2--------------5--------------2--------------3-------4------------|x4
|-0--------------3--------------0--------------1-------2------------|
  "              "              "

TAPPING SECTION (Guitar 2 Do The Last Riff x2)

*
|----------------------------------------------
|----------------------------------------------
|--9--12--16--9--12--16--9--12--16--9--12--16--
|----------t----------t----------t----------t--
|----------------------------------------------
|----------------------------------------------

|----------------------------------------------
|--9--12--16--9--12--16--9--12--16--9--12--16--
|----------t----------t----------t----------t--
|----------------------------------------------
|----------------------------------------------
|----------------------------------------------

|----------------------------------------------
|----------------------------------------------
|--9--12--16--9--12--16--9--12--16--9--12--16--
|----------t----------t----------t----------t--
|----------------------------------------------
|----------------------------------------------

|----------------------------------------------
|--9--12--16--9--12--16--8--11--15--8--11--15--
|----------t----------t----------t----------t--
|----------------------------------------------
|----------------------------------------------
|----------------------------------------------
|----------------------------------------------
|----------------------------------------------
|--9--12--16--9--12--16--9--12--16--9--12--16--
|----------t----------t----------t----------t--
|----------------------------------------------
|----------------------------------------------

|----------------------------------------------
|--9--12--16--9--12--16--9--12--16--9--12--16--
|----------t----------t----------t----------t--
|----------------------------------------------
|----------------------------------------------
|----------------------------------------------

|----------------------------------------------
|----------------------------------------------
|--9--12--16--9--12--16--9--12--16--9--12--16--
|----------t----------t----------t----------t--
|----------------------------------------------
|----------------------------------------------

|--------------------------------------------------|
|--------------------------------------------------|
|--11--14--18--11--14--18--10--13--17--10--13--17--|
|-----------t-----------t-----------t-----------t--|
|--------------------------------------------------|x2
|--------------------------------------------------|



|-------------------------------------------------------------------
|-------------------------------------------------------------------
|-------------------------------------------------------------------
|-------------------------------------------------------------------
|-2--------------5--------------2--------------6-------5------------
|-0--------------3--------------0--------------4-------3------------
  "              "              "              "       "


|-------------------------------------------------------------------|
|-------------------------------------------------------------------|
|-------------------------------------------------------------------|
|-------------------------------------------------------------------|
|-2--------------5--------------2--------------3-------4------------|
|-0--------------3--------------0--------------1-------2------------|
  "              "              "


|---------------------------|
|---------------------------|
|---------------------------|
|-10-----------9------------|
|-8------------7------------|x2
|-"------------"------------|

|-----------------------------------------|
|-----------------------------------------|
|-----------------------------------------|
|-----------------------------------------|
|-2----2--2----8------2----2--2----5------|x4
|-0----0--0----6------0----0--0----3------|


|-----------------------------------------|
|-----------------------------------------|
|-----------------------------------------|
|-8---------8---------6---------6---------|
|-"----7----"----7----"----7----"----7----|x2
|------"---------"---------"---------"----|


*
|----------------------------------------
|----------------------------------------
|----------------------------------------
|----------------------------------------
|-2----2--2--2--2--2--2--2--2--2--8-8----
|-0----0--0--0--0--0--0--0--0--0--6-6----


|----------------------------------------|
|----------------------------------------|
|----------------------------------------|
|----------------------------------------|
|-2----2--2--2--2--2--2--2--2--2--3-3----|x2
|-0----0--0--0--0--0--0--0--0--0--5-5----|



|---------------------------|
|---------------------------|
|---------------------------|
|-10-----------9------------|
|-8------------7------------|x2
|-"------------"------------|

|-----------------------------------------|
|-----------------------------------------|
|-----------------------------------------|
|-----------------------------------------|
|-2----2--2----8------2----2--2----5------|x4
|-0----0--0----6------0----0--0----3------|


|-----------------------------------------|
|-----------------------------------------|
|-----------------------------------------|
|-8---------8---------6---------6---------|
|-"----7----"----7----"----7----"----7----|x2
|------"---------"---------"---------"----|


*
|----------------------------------------
|----------------------------------------
|----------------------------------------
|----------------------------------------
|-2----2--2--2--2--2--2--2--2--2--8-8----
|-0----0--0--0--0--0--0--0--0--0--6-6----


|----------------------------------------|
|----------------------------------------|
|----------------------------------------|
|----------------------------------------|
|-2----2--2--2--2--2--2--2--2--2--3-3----|x2
|-0----0--0--0--0--0--0--0--0--0--5-5----|


|--------|
|--------|
|--------|
|-2------|
|-2------|
|-0------|

ENDING (tempo slower)

Let Ring
|-----------------------------------------------------------------
|---------0-------------------------------0-----------------------
|-----0-------0-----------3-----------0-------0-------------------
|---------------------5-------5-----------------------6-------5---
|-----------------------------------------------------------------
|-0---------------3---------------0---------------4-------3-------


|---------------------------------------------------------------|
|---------0-------------------------------0---------------------|
|-----0-------0-----------3-----------0-------0-----------------|
|---------------------5-------5---------------------------------|
|-------------------------------------------------3------2------|x5
|-0---------------3---------------0-----------------------------|


|---------|
|---------|
|---------|
|-2-------|
|-2-------|
|-0-------|



END

  Visit MetalTabs.com for more metal tablature

bottom separator

Contact Us | Privacy Policy | Disclaimer | Legal Notice
Copyright © 2001-2014 MetalTabs.com. All Rights Reserved.