top separator

Home

Forum

What's New

Submit a Tab

FAQ

Links

Contact Us

Link to Us

MetalTabs.com logo

Bands

0-9

A

B

C

D

E

F

G

H

I

J

K

L

M

N

O

P

Q

R

S

T

U

V

W

X

Y

Z

Search

What

Where
 

Battlelore - "Fangorn" Guitar Tab

Plain Text Version
More Battlelore Tabs

Hits: 2562
Rated: 5.00 out of 5 (1 vote)
Updated: 2005-09-28 01:04:48

 

By:

Theoldman

sendpm.gif

email.gif

Important note
This tab is available online because we obtained explicit permission from Battlelore or their label.


#----------------------------------PLEASE NOTE---------------------------------#
#This file is the author's own work and represents their interpretation of the #
#song. You may only use this file for private study, scholarship, or research. #
#Unless specified otherwise, this is NOT an official tab from the band members.#
#------------------------------------------------------------------------------#

  Visit MetalTabs.com for more metal tablature
  
Band:  Battlelore
Album: ...Where The Shadows Lie
Song:  Fangorn

Copyright (c)  Napalm Records 2002
Version 1.0 -  11.9.2005

Transcribed By: Theoldman
Email:          swordbearing@hotmail.com
________________________________________

.  - palm mute           /  - slide up to
\  - slide down to       ~  - vibrato
h  - hammer on           b  - Bend
p  - pull off            Suffixes for bend
t  - tap                 f  - full bend    h - half bend
ph - pinched harmonic    q  - quarter bend t - tap bend
*  - see comment         ^  - Hold bend    r release bend
x  - Stuccatto           ~  - vibrato bend
,  - slight palm mute    () - ghost note, sustained note
"  - tremolo note        <> - Trill

Tuning  B E A D G B

Riff 1 (0:00-0:06)
|-------------------------------|-------------------------------|
|-------------------------------|-------------------------------|
|-------------------------------|-------------------------------|
|-------------------------------|-------------------------------|
|-------------------------------|-------------------------------|
|0-----0-1-0-0------0---3---5---|0-----0-1-0-0------0---x-0-x-0-|
                                                          .   .


Riff 2 (0:07-0:59)
|-------------------------------|-------------------------------|
|-------------------------------|-------------------------------|
|-------------------------------|-------------------------------|
|-------------------------------|-------------------------------|
|2-----2-3-2-2------2---5---7---|2-----2-3-2-2------2---5-7-3---|
|0-----0-1-0-0------0---3---5---|0-----0-1-0-0------0---3-5-1---|

|-------------------------------|---------------------------------|
|-------------------------------|---------------------------------|
|-------------------------------|---------------------------------|
|-------------------------------|----------5-5------5-5---4-------|
|2-----2-3-2-2------2---5---7---|7-----7-7-3-3------3-3---2---5---|
|0-----0-1-0-0------0---3---5---|5-----5-5--------------------3---|



Riff 3 (1:00-1:51)
|--------------------------------|--------------------------------|
|--------------------------------|--------------------------------|
|--------------------------------|--------------------------------|
|--------------------------------|--------------------------------|
|7-----7-7-7-7-----7-7-7-7---7---|5-----5-5-5-3-----3-3-3-3---3---|
|5-----5-5-5-5-----5-5-5-5---5---|3-----3-3-3-1-----1-1-1-1---1---|

|--------------------------------|--------------------------------|
|--------------------------------|--------------------------------|
|--------------------------------|--------------------------------|
|--------------------------------|--------------------------------|
|7-----7-7-7-7-----7-7-7-7---7---|3-----3-3-2-2-----2-2-2-3---5---|
|5-----5-5-5-5-----5-5-5-5---5---|1-----1-1-0-0-----0-0-0-1---3---|



Riff 2 (1:52-2:18)



Riff 4 (2:19)
|------------------|
|------------------|
|------------------|
|------------------|
|7-----------------|
|5-----------------|



Solo 1 (2:32-2:44)
|------------------------------------------------------|
|4------------------------5------------7-----5-----4---|
|------------------------------------------------------|
|------------------------------------------------------|
|------------------------------------------------------|
|------------------------------------------------------|

|------------------------------------------------------|
|4-5-4---------4-2-2---------2-0-0---------2-0-----2-4-|
|------------------------------------------------------|
|------------------------------------------------------|
|------------------------------------------------------|
|------------------------------------------------------|



Riff 5 (2:45-3:10)
|--------------------------------|--------------------------------|
|--------------------------------|--------------------------------|
|--------------------------------|--------------------------------|
|--------------------------------|--------------------------------|
|7-----7-7-7-7-----7-7-7-7---7---|3-----3-3-3-3-----3-3-3-5---5---|
|5-----5-5-5-5-----5-5-5-5---5---|1-----1-1-1-1-----1-1-1-3---3---|

|--------------------------------|--------------------------------|
|--------------------------------|--------------------------------|
|--------------------------------|--------------------------------|
|--------------------------------|--------------------------------|
|7-----7-7-7-7-----7-7-7-7---7---|5-----5-5-5-3-----3-3-3-3---3---|
|5-----5-5-5-5-----5-5-5-5---5---|3-----3-3-3-1-----1-1-1-1---1---|

|--------------------------------|--------------------------------|
|--------------------------------|--------------------------------|
|--------------------------------|--------------------------------|
|--------------------------------|--------------------------------|
|7-----7-7-7-7-----7-7-7-7---7---|3-----3-3-3-3-----3-3-3-5---5---|
|5-----5-5-5-5-----5-5-5-5---5---|1-----1-1-1-1-----1-1-1-3---3---|

|--------------------------------|--------------------------------|
|--------------------------------|--------------------------------|
|--------------------------------|--------------------------------|
|--------------------------------|--------------------------------|
|7-----7-7-7-7-----7-7-7-7---7---|3-----3-3-3-5-----5-5-5-5---5---|
|5-----5-5-5-5-----5-5-5-5---5---|1-----1-1-1-3-----3-3-3-3---3---|



Riff 6 (3:38-4:03)
|--------------------------------|--------------------------------------|
|--------------------------------|--------------------------------------|
|--------------------------------|--------------------------------------|
|--------------------------------|10-----10-----10-----10-----12---12---|
|7-----7-----7-----7-----7---7---|8----8-8----8-8----8-8----8-10---10---|
|5---5-5---5-5---5-5---5-5---5---|--------------------------------------|
     .     .     .     .               .      .      .      .
|--------------------------------|-------------------------------------|
|--------------------------------|-------------------------------------|
|--------------------------------|-------------------------------------|
|--------------------------------|10-----10-----10---9-----9-----10-12-|
|7-----7-----7-----7-----7---7---|8----8-8----8-8----7-7-7-7-7-7-8--10-|
|5---5-5---5-5---5-5---5-5---5---|-------------------------------------|
     .     .     .     .               .      .        . .   . .



Riff 2 (4:04-4:56)



Riff 7 (4:57)
|------------------|
|------------------|
|------------------|
|------------------|
|2-----------------|
|0-----------------|



END

  Visit MetalTabs.com for more metal tablature

bottom separator

Contact Us | Privacy Policy | Disclaimer | Legal Notice
Copyright © 2001-2014 MetalTabs.com. All Rights Reserved.