top separator

Home

Forum

What's New

Submit a Tab

FAQ

Links

Contact Us

Link to Us

MetalTabs.com logo

Bands

0-9

A

B

C

D

E

F

G

H

I

J

K

L

M

N

O

P

Q

R

S

T

U

V

W

X

Y

Z

Search

What

Where
 

Bloodbath - "Feeding the Undead" Guitar Tab

Plain Text Version
More Bloodbath Tabs

Hits: 4271
Rated: 2.00 out of 5 (4 votes)
Updated: 2005-09-28 00:50:31

 

By:

sendpm.gif

email.gif

Important note
This tab is available online because we obtained explicit permission from Bloodbath or their label.


#----------------------------------PLEASE NOTE---------------------------------#
#This file is the author's own work and represents their interpretation of the #
#song. You may only use this file for private study, scholarship, or research. #
#Unless specified otherwise, this is NOT an official tab from the band members.#
#------------------------------------------------------------------------------#

  Visit MetalTabs.com for more metal tablature
  
BLOODBATH
NIGHTMARES MADE FLESH
FEEDING THE UNDEAD
(Century Media)
tabbed by slaughterlord
slaught3rlord@yahoo.gr

tuning : B E A D G B


Riff 1
|------------------------------------------------|
|------------------------------------------------|
|------------------------------------------------|
|------------------------------------------------|
|---------------10-10-10-10-10-10----------------|
|---0-0-0-0-0-0-------------------0-0-0-0-0-0----|

|--------------------------------------------------------|
|--------------------------------------------------------|
|--------------------------------------------------------|
|--------------------------------------------------------|
|---10-10-10-10-10-10---------10-10-10-10-9-9-9-9-9-9----|
|---------------------0-0-0-0----------------------------|

|----------------------------------------------|
|----------------------------------------------|
|----------------------------------------------|
|-----------------------------------12-11-8----|
|---6-6-6-6-6-6-6-6-6-6-6-6-6-6-6-6-10-9--6----|
|----------------------------------------------|

|------------------------------------------------|
|------------------------------------------------|
|------------------------------------------------|
|------------------------------------------------|
|---------------10-10-10-10-10-10----------------|
|---0-0-0-0-0-0-------------------0-0-0-0-0-0----|

|-------------------------------------------------------------|
|-------------------------------------------------------------|
|-------------------------------------------------------------|
|-------------------------------------------------------------|
|---10-10-10-10-10-10---------10-10-10-10-12-12-12-12-12-12---|
|---------------------0-0-0-0---------------------------------|

|---------------------------------------------------------------|
|---------------------------------------------------------------|
|---------------------------------------------------------------|
|-----------------------------------------------------12-11-8---|
|---13-13-13-13-13-13-9-9-9-9-9-9-9-9-9-9-9-9-9-9-9-9-10-9--6---|
|---------------------------------------------------------------|


Riff 2
|-----------------------------------------------------------|
|-----------------------------------------------------------|
|-----------------------------------------------------------|
|-----------------------------------------------------------|
|---------------8-8-8-8-8-8-10-10-10-10-10-10-8-8-8-8-------|
|---0-0-0-0-0-0---------------------------------------0-0---|

|-------------------------------------------------------|
|-------------------------------------------------------|
|-------------------------------------------------------|
|-------------------------------------------------------|
|---8-8-8-8-10-10-10-10-8-8-8-8-8-8---------------------|
|-----------------------------------0-0-0-0-0-0-0-0-----|

|-------------------------------------------|
|-------------------------------------------|
|-------------------------------------------|
|-------------------------------------------|
|---------------8-8-8-8---------8-8-8-8-----|
|---0-0-0-0-0-0---------0-0-0-0-------------|

|------------------------------------------------------------|
|------------------------------------------------------------|
|------------------------------------------------------------|
|------------------------------------------------------------|
|---------------8-8-8-8-8-8-10-10-10-10-10-10-8-8-8-8--------|
|---0-0-0-0-0-0---------------------------------------0-0----|

|-------------------------------------------------------|
|-------------------------------------------------------|
|-------------------------------------------------------|
|-------------------------------------------------------|
|---8-8-8-8-10-10-10-10-8-8-8-8-8-8---------------------|
|-----------------------------------0-0-0-0-0-0-0-0-----|

|---------------------------------------|
|---------------------------------------|
|---------------------------------------|
|---------------------------------------|
|---------------5-5-5-5-----------------|
|---0-0-0-0-0-0---------1-1-4-4-1-1-----|


Riff 1


Riff 2


Riff 3-A
|---------------------|
|---------------------|
|---------------------|
|---------------------|
|---2-22-2--22-2-2----|
|---0-00-0--00-0-0----|
    * ** *  ** * *


Riff 3-B
|-------------------------------------|
|-------------------------------------|
|-------------------------------------|
|-------------------------------------|
|---------10-10-------10-10-8---11----|
|---0-0-0-------0-0-0---------0-------|
    * * *       * * *         *

|----------------------------------------|
|----------------------------------------|
|----------------------------------------|
|----------------------------------------|
|---------10-10-------10-10--------------|
|---0-0-0-------0-0-0-------1-3-4/3/1----|
    * * *       * * *


Riff 3-C
|----------------------------------------|
|----------------------------------------|
|----------------------------------------|
|----------------------------------------|
|---------9-9-9-------9-9-9-----10-10----|
|---0-0-0-------0-0-0-------0-0----------|
    * * *       * * *       * *

|---------------------------------------|
|---------------------------------------|
|---------------------------------------|
|---------------------------------------|
|---------9-9-9-------9-9-9-------------|
|---0-0-0-------0-0-0-------3-4-3-1-----|
    * * *       * * *


Riff 1


Riff 2


Riff 3-A


Riff 3-B


Riff 3-C


Riff 4-A under solo
|---------------------------------|
|---------------------------------|
|---------------------------------|
|---------------------------------|
|---2-2-3-3-3-2---8---11-8-7------|
|---0-0-1-1-1-0-0---0-------------|
    *   * * *

|-----------------------------------|
|-----------------------------------|
|-----------------------------------|
|-----------------------------------|
|---2-2-3-3-3-2---8---10---13-12----|
|---0-0-1-1-1-0-0---0----0----------|
    *   * * *


Riff 4-B under bass
|---------------------------------|
|---------------------------------|
|---------------------------------|
|---------------------------------|
|---2-2-3-3-3-2---8---11-8-7------|
|---0-0-1-1-1-0-0---0-------------|
    *   * * *

|-----------------------------------|
|-----------------------------------|
|-----------------------------------|
|-----------------------------------|
|---2-2-3-3-3-2---8---10---13-12----|
|---0-0-1-1-1-0-0---0----0----------|
    *   * * *


Riff 4-C under bass
|---------------------------------|
|---------------------------------|
|---------------------------------|
|---------------------------------|
|---2-2-3-3-3-2---8---11-8-7------|
|---0-0-1-1-1-0-0---0-------------|
    *   * * *

|---------------------------------|
|---------------------------------|
|---------------------------------|
|---------------------------------|
|---2-2--2-2--5-7-8---5-7-8-7-----|
|---0-0--0-0--------0-------------|
    *    *


Riff 4-B


Riff 3-C


End
|--------|
|--------|
|--------|
|--------|
|---2----|
|---0----|

  Visit MetalTabs.com for more metal tablature

bottom separator

Contact Us | Privacy Policy | Disclaimer | Legal Notice
Copyright © 2001-2014 MetalTabs.com. All Rights Reserved.