top separator

Home

Forum

What's New

Submit a Tab

FAQ

Links

Contact Us

Link to Us

MetalTabs.com logo

Bands

0-9

A

B

C

D

E

F

G

H

I

J

K

L

M

N

O

P

Q

R

S

T

U

V

W

X

Y

Z

Search

What

Where
 

Moonsorrow - "Kivenkantaja" Guitar Tab

Plain Text Version
More Moonsorrow Tabs

Hits: 7092
Rated: 3.50 out of 5 (2 votes)
Updated: 2005-09-16 01:53:01

 

By:

Theoldman

sendpm.gif

email.gif

Important note
This tab is available online because we obtained explicit permission from Moonsorrow or their label.


#----------------------------------PLEASE NOTE---------------------------------#
#This file is the author's own work and represents their interpretation of the #
#song. You may only use this file for private study, scholarship, or research. #
#Unless specified otherwise, this is NOT an official tab from the band members.#
#------------------------------------------------------------------------------#

  Visit MetalTabs.com for more metal tablature
  
Band:  Moonsorrow
Album: Kivenkantaja
Song:  Kivenkantaja

Copyright (c)  Spinefarm 2003
Version 1.0 - 6.9.2005

Transcribed By: Theoldman
Email:          swordbearing@hotmail.com
________________________________________

.  - palm mute           /  - slide up to
\  - slide down to       ~  - vibrato
h  - hammer on           b  - Bend
p  - pull off            Suffixes for bend
t  - tap                 f  - full bend    h - half bend
ph - pinched harmonic    q  - quarter bend t - tap bend
*  - see comment         ^  - Hold bend    r release bend
x  - Stuccatto           ~  - vibrato bend
,  - slight palm mute    () - ghost note, sustained note
"  - tremolo note        <> - Trill

Tuning B E A D G B

Riff 1 (acoustic) (0:00-0:57)
|------------------------|--------------------------|
|7-----7-----5-----5-----|4-----4------5-----5------|
|5-55555-33223-33333-3333|2-22222------3-33333-3333-|
|------------------------|--------5533--------------|
|------------------------|--------------------------|
|------------------------|--------------------------|



Riff 2 (1:00-1:14)
|------------------------------------------------|
|------------------------------------------------|
|------------------------------------------------|
|------------------------------------------------|
|5-5---5-5---5-5---5-5---5-5---5-5---5-5---5-5---|
|3-3---3-3---3-3---3-3---3-3---3-3---3-3---3-3---|

|------------------------------------------------|
|------------------------------------------------|
|------------------------------------------------|
|------------------------------------5-----------|
|5-5---5-5---5-5---5-5---5-5---5-5---3---3---5---|
|3-3---3-3---3-3---3-3---3-3---3-3--------65-3---|



Riff 3 (1:15-1:25)
|--------------------|
|--------------------|
|--------------------|
|--------------------|
|--------------------|
|33-3333-3-33-3333-3-|
 .. .... . .. .... .



Riff 2 (1:26-1:32)

Riff 3 (1:33-1:56)



Riff 4 (1:57-2:18)
|-----------|-----------|-----------|-----------|
|-----------|-----------|-----------|-----------|
|7------7---|7------7---|7------7---|-----5-7---|
|5---5875-7-|5---5875-7-|5---5875-7-|7----3-5-7-|
|---------5-|---------5-|---------5-|5---5----5-|
|-----------|-----------|-----------|-----------|



Riff 5 (2:19-2:31)
|------------------------|
|------------------------|
|------------5-----7-----|
|5-----7-----3-----5-----|
|3-----5-----------------|
|------------------------|



Riff 4 (2:32-2:42)



Riff 6 (3:17-3:39)
|-------------|-------------|-------------|-------------|
|-------------|-------------|-------------|-------------|
|-------------|-------------|-------------|-------------|
|------5------|5------------|-------------|-------------|
|5---8-3------|3---7-8------|8---5-7------|----3-5------|
|3--56--------|---65-6------|6--53-5------|111-1-3------|
                                           ...
|-------------|-------------|-------------|-------------|
|-------------|-------------|-------------|-------------|
|-------------|-------------|-------------|7535--7------|
|------5------|5------------|-------------|----875------|
|5---8-3------|3---7-8------|8---5-7------|-------------|
|3--56--------|---65-6------|6--53-5------|-------------|

|-------------|
|-------------|
|7535--7------|
|----875------|
|-------------|
|-------------|



Riff 7 (3:40-4:07)
|------------------------|------------------------|
|------------------------|------------------------|
|------------------------|------------------------|
|5-5-5-5-3-2-3-3-3-3-3-3-|2-2-2-2-----------------|
|3-3-3-3-1-0-1-1-1-1-1-1-|0-0-0-0-5-3-5-5-5-5-5-5-|
|------------------------|--------3-1-3-3-3-3-3-3-|

|------------------------|------------------------|
|------------------------|------------------------|
|------------------------|------------------------|
|5-5-5-5-3-2-3-3-3-3-3-3-|2-2-2-2-----------------|
|3-3-3-3-1-0-1-1-1-1-1-1-|0-0-0-0-5-3-5-5-5-5-5-5-|
|------------------------|--------3-1-3-3-3-3-3-3-|

|------------------------|------------------------|
|------------------------|------------------------|
|------------------------|------------------------|
|5-5-5-5-3-2-3-3-3-3-3-3-|2-2-2-2-----------------|
|3-3-3-3-1-0-1-1-1-1-1-1-|0-0-0-0-5-7-8-8-8-8-8-8-|
|------------------------|--------3-5-6-6-6-6-6-6-|

|------------------------|------------------------|
|------------------------|------------------------|
|------------------------|------------------------|
|5-5-5-5-3-2-3-3-3-3-3-3-|2-2-2-2-----------------|
|3-3-3-3-1-0-1-1-1-1-1-1-|0-0-0-0-5-3-5------5----|
|------------------------|--------3-1-3---3333----|
                                          ...


Riff 8 (4:08-4:37)
|----------------------------------------------------|
|----------------------------------------------------|
|----------------------------------------------------|
|---------------------------------------3--2---------|
|---5------------5------------5---------1--0--5------|
|3333---------3333---------3333---------------3------|
 ...          ...          ...
|----------------------------------------------------|
|----------------------------------------------------|
|----------------------------------------------------|
|---------------------------------------3--2---------|
|---5------------5------------5---------1--0--5------|
|3333---------3333---------3333---------------3------|
 ...          ...          ...
|----------------------------------------------------|
|----------------------------------------------------|
|----------------------------------------------------|
|---------------------------------------3--2---------|
|---5------------5------------5---------1--0--5------|
|3333---------3333---------3333---------------3------|
 ...          ...          ...
|----------------------------------------------------|
|----------------------------------------------------|
|----------------------------------------------------|
|------------------------------------------3-----2---|
|---5------------5------------5--5--5---1111--0000---|
|3333---------3333---------3333--3--3----------------|
 ...          ...          ...   .  .   ...   ...



Riff 9 (4:38-4:51)
|-------------|-------------|-------------|-------------|
|-------------|-------------|-------------|-------------|
|7---3237-----|7---3237-----|7---3237-----|7---3237-----|
|5--5---5--7--|5--5---5-----|5--5---5--7--|5--5---5-----|
|----------5--|-------------|----------5--|-------------|
|-------------|-------------|-------------|-------------|

|-------------|-------------|---------------|-------------|
|-------------|-------------|---------------|-------------|
|7---3237-----|7---3237-----|7---3237-------|-------------|
|5--5---5--7--|5--5---5-----|5--5---5--5535-|7------------|
|----------5--|-------------|---------------|5--53--5-----|
|-------------|-------------|---------------|-----653-----|



Riff 10 (4:52-5:05)
|------------------------------------------------------|
|------------------------------------------------------|
|-------7535----------7535----------7535---------------|
|-----------87------------87------------87----3--------|
|------------------------------------------5--1--3-----|
|333333--------333333--------333333--------3-----1-----|
 ......        ......        ......
|------------------------------------------------------|
|------------------------------------------------------|
|-------7535----------7535----------7535---------------|
|-----------87------------87------------87----3-----7--|
|------------------------------------------1111--5555--|
|333333--------333333--------333333--------------------|
 ......        ......        ......        ...   ...



Riff 8 (5:06-5:32)



Riff 11 (5:33-5:46)
|--------------------------|-----------------------------|
|--------------------------|-----------------------------|
|--------------------------|-----------------------------|
|777777777777777777777-555-|777777777-555-333-222--------|
|555555555555555555555-333-|555555555-333-111-000-555555-|
|--------------------------|----------------------333333-|



Riff 10 (5:47-6:01)



Riff 12 (6:02-6:15)
|---------------|---------------|---------------|-------------|
|---------------|---------------|---------------|-------------|
|---------------|---------------|---------------|-------------|
|3-------32020--|3-------3202~--|3-------32020--|3------------|
|1--1-11------3-|1--1-11--------|1--1-11------3-|1--1--10-0-0-|
|---------------|---------------|---------------|-------------|
    . ..            . ..            . ..            .  .. . .
|---------------|---------------|---------------|-------------|
|---------------|---------------|---------------|-------------|
|---------------|---------------|---------------|-------------|
|3-------32020--|3-------3202~--|3-------32020--|3------------|
|1--1-11------3-|1--1-11--------|1--1-11------3-|1--1--13-3-3-|
|---------------|---------------|---------------|-------------|
    . ..            . ..            . ..            .  .. . .



Riff 13 (6:16-6:32)
|--------------|--------------|--------------|--------------|
|--------------|--------------|--------------|--------------|
|--------------|--------------|--------------|--------------|
|7-------------|7---------5---|7-------------|--------------|
|5--5-55555333-|5--5-555553---|5--5-55555333-|111000-5------|
|--------------|--------------|--------------|-------3------|
    . ........     . .....        . ........  ......
|--------------|--------------|--------------|--------------|
|--------------|--------------|--------------|--------------|
|--------------|--------------|--------------|--------------|
|7-------------|7---------5---|7-------------|-------7------|
|5--5-55555333-|5--5-555553---|5--5-55555333-|111333-5------|
|--------------|--------------|--------------|--------------|
    . ........     . .....        . ........  ......
|--------------|--------------|
|--------------|--------------|
|--------------|--------------|
|-------7------|-------7------|
|111333-5------|111333-5------|
|--------------|--------------|
 ......         ......



Riff 10 (6:33-6:46)



Riff 14 (6:47-7:16)
|---------------------------------------------------|
|---------------------------------------------------|
|-----------------------------------------5-4---4---|
|------7----7-------7----7-------7----7---3-2-0-2-5-|
|5555555----5-5555555----5-5555555----5-5---------3-|
|---------------------------------------------------|
 ......       ......       ......       .     .



Riff 15 (7:17-7:23)
|----------------------|
|----------------------|
|----------------------|
|----------------------|
|5-5-5-5-5-5-5-5-5-5-5-|
|3-3-3-3-3-3-3-3-3-3-3-|
 . . . . . . . . . . .



Riff 2 (7:24-7:38)



END

  Visit MetalTabs.com for more metal tablature

bottom separator

Contact Us | Privacy Policy | Disclaimer | Legal Notice
Copyright © 2001-2014 MetalTabs.com. All Rights Reserved.