top separator

Home

Forum

What's New

Submit a Tab

FAQ

Links

Contact Us

Link to Us

MetalTabs.com logo

Bands

0-9

A

B

C

D

E

F

G

H

I

J

K

L

M

N

O

P

Q

R

S

T

U

V

W

X

Y

Z

Search

What

Where
 

Falconer - "Per Tyrssons Döttrar I Vänge *" Guitar Tab

Plain Text Version
More Falconer Tabs

Hits: 4746
Rated: 2.67 out of 5 (3 votes)
Updated: 2006-10-29 06:26:25

 

By:

sendpm.gif

email.gif

Important note
This tab is available online because we obtained explicit permission from Falconer or their label.


#----------------------------------PLEASE NOTE---------------------------------#
#This file is the author's own work and represents their interpretation of the #
#song. You may only use this file for private study, scholarship, or research. #
#Unless specified otherwise, this is NOT an official tab from the band members.#
#------------------------------------------------------------------------------#

  Visit MetalTabs.com for more metal tablature
  
Falconer
Per Tyrssons döttrar i vänge
Transcribed by Christian Viering  (chrizzi1@gmx.de <mailto:chrizzi1@gmx.de>)
Mail me if you can find mistakes

Tune down one whole step



 Only bass guitar     1:11 Verse 1
|-------------------|---------------------------------------------------------|
|-------------------|---------------------------------------------------------|
|-------------------|-*-----------------------------------------------------*-|
|-------------------|-*-----6~--------6~---6~---6~--------6~---6~------11~--*-|
|-------------------|--4~---4~---4~---4~---4~---4~---4~---4~---4~--7~--9~-----|
|-------------------|--2~--------2~------------------2~------------5~---------|
 Riff  1:30
|---------------------------------------------------------------------------|
|-------------------------------------------10--12-10----------------10-----|
|-------------------------------------11-13-----------13-10-----11--13--11--|
|-*-11----------11---12-11-9----9-11------------------------11--------------|
|-------9---12---------------12---------------------------------------------|
|---------------------------------------------------------------------------|

|-----------------------------------------------------------------------------|
|-----------------------------------------------------------------------------|
|--10h11p10---------------------------------------------------------10--1113--|
|-------------12-11-----------11---12-11-9----9-11----------------------------|
|---------------------9---12---------------12-------12-11-9--12-11-8----------|
|-----------------------------------------------------------------------------|
             Verse 2 1:51
|----------|------------------------------------------------------------------|
|----------|------------------------------------------------------------------|
|-10-11--*-|-*----------------------------------------------------------------|
|--------*-|-*-------6-6-6----------------6-6-6--6-6-6--6-6-6--6-6-6--6-6-6---|
|----------|--4-4-4--4-4-4--4-4-4--4-4-4--4-4-4--4-4-4--4-4-4--4-4-4--4-4-4---|
|----------|--2-2-2---------2-2-2--2-2-2--------------------------------------|
                pm.  .....  .....  ....   .....  .....  .....  .....  ....|
|-----------------------------------------|-----------|--------|--------------|
|-----------------------------------------|-----------|--------|--------------|
|-----------------------------------------|--Verse-2--|--Riff--|--------------|
|---------------------------------------*-|-----------|--------|--------------|
|-6-6-6---------6-6-6--6-6-6---------11-*-|-----------|--------|--------------|
|-4-4-4--4-4-4--4-4-4--4-4-4--7-7-7--9----|-----------|--------|--------------|
|--------2-2-2----------------5-5-5-------|-----------|--------|--------------|
  pm...  .....  .....  .....  ....|
Verse 3
|---------------------------------------------------------------------|
|---------------------------------------------------------------------|
|-*-------------------------------------------------------------------|
|-*----------7-7-7----------------7-7-7--7-7-7--7-7-7--7-7-7--7-7-7---|
|-----5-5-5--5-5-5--5-5-5--5-5-5--5-5-5--5-5-5--5-5-5--5-5-5--5-5-5---|
|-----3-3-3---------3-3-3--3-3-3--------------------------------------|
        pm.  .....  .....  ....   .....  .....  .....  .....  ....|
|-----------------------------------------|-----------|--------|--------------|
|-----------------------------------------|-----------|--------|--------------|
|-----------------------------------------|--Verse-3--|--------|--------------|
|---------------------------------------*-|-----------|--------|--------------|
|-7-7-7---------7-7-7--7-7-7---------12-*-|-----------|--------|--------------|
|-5-5-5--5-5-5--5-5-5--5-5-5--8-8-8--10---|-----------|--5~----|--------------|
|--------3-3-3----------------6-6-6-------|-----------|--3~----|--------------|
  pm...  .....  .....  .....  ....|
 Riff 2
|------------------------------------------------------------------------------|
|----------------------------------------------11--13-11----------------11-----|
|-*--------------------------------------12-14-----------14-11-----12--14--12--|
|-*-12-----------12---13-12-10----10-12------------------------12--------------|
|-------10---13----------------13----------------------------------------------|
|------------------------------------------------------------------------------|

|------------------------------------------------------------------------------|
|------------------------------------------------------------------------------|
|-11h12p11-------------------------------------------------------------11--1214|
|----------13-12------------12---13-12-10----10-12-----------------------------|
|------------------10---13----------------13--------13-12-10--13-12-9----------|
|------------------------------------------------------------------------------|

|----------|
|----------|
|-11-10---*|
|---------*|
|----------|
|----------|


Verse 4
|-----------------------------------------------------------------------------|
|-----------------------------------------------------------------------------|
|-----------------------------------------------------------------------------|
|--------7~----------7~--------7~----7~---------------------------------------|
|--5~----5~----5~----5~--------5~----5~---8~--5~~-----------------------------|
|--3~----------3~-------------------------6~--3~~-----------------------------|




------------------------------------------------------------------------------
Rhythm guitar during Riff 1
|------------------------------------------------------------------------|
|------------------------------------------------------------------------|
|----------------7---6---4---6--------------------7----------------------|
|--4------7------7---6---4---6------4------7------7---3---6---4----------|
|--4------7------5---4---2---4------4------7------5---3---6---4----------|
|--2------5-------------------------2------5----------1---4---2----------|


Rhythm guitar during Riff 2
|------------------------------------------------------------------------|
|------------------------------------------------------------------------|
|----------------8---7---5---7--------------------8----------------------|
|--5------8------8---7---5---7------5------8------8---4---7---5----------|
|--5------8------6---5---3---5------5------8------6---4---7---5----------|
|--3------6-------------------------3------6----------2---5---3----------|


=======================
=TABLATURE EXPLANATION=
=======================

A.H. = Artificial Harmonic

pm..| = Palm mute

h = hammer on

p = pull off

/ = slide up

\ = slide down

~ = Vibrato

b() = Bend

x\ = Pick Slide

--------
--------
---12--- = Tremolo pick
----/---
----/---
----/---

---.---
--12--- = Staccato
-------
-------
-------

|     |
|     |
|*   *| = repeat from * to *
|*   *|
|     |

  Visit MetalTabs.com for more metal tablature

bottom separator

Contact Us | Privacy Policy | Disclaimer | Legal Notice
Copyright © 2001-2014 MetalTabs.com. All Rights Reserved.