top separator

Home

Forum

What's New

Submit a Tab

FAQ

Links

Contact Us

Link to Us

MetalTabs.com logo

Bands

0-9

A

B

C

D

E

F

G

H

I

J

K

L

M

N

O

P

Q

R

S

T

U

V

W

X

Y

Z

Search

What

Where
 

Battlelore - "Trollshaws" Guitar Tab

Plain Text Version
More Battlelore Tabs

Hits: 3559
Rated: 4.00 out of 5 (1 vote)
Updated: 2005-09-16 01:27:39

 

By:

Darkenelf

sendpm.gif

email.gif

Important note
This tab is available online because we obtained explicit permission from Battlelore or their label.


#----------------------------------PLEASE NOTE---------------------------------#
#This file is the author's own work and represents their interpretation of the #
#song. You may only use this file for private study, scholarship, or research. #
#Unless specified otherwise, this is NOT an official tab from the band members.#
#------------------------------------------------------------------------------#

  Visit MetalTabs.com for more metal tablature
  
Band: Battlelore
Album: Third Age of the Sun
Song: Trollshaws

Copyright (c)(2005)
Version 1.0 - (04-09-2005)

Transcribed By: (Martijn Wietsma)
Email:          (asmundr@vikingblood.net)


.  - palm mute           /  - slide up to
\  - slide down to       ~  - vibrato
h  - hammer on           b  - Bend
p  - pull off            Suffixes for bend
t  - tap                 f  - full bend    h - half bend
ph - pinched harmonic    q  - quarter bend t - tap bend
*  - see comment         ^  - Hold bend    r release bend
x  - Stuccatto           ~  - vibrato bend
,  - slight palm mute    () - ghost note, sustained note
"  - tremolo note        <> - Trill

Tuning E A D G B E

(Drum Intro)

A (0:17)
|-------------------------------------------------------------------|
|-------------------------------------------------------------------|
|-------------------------------------------------------------------|(2x)
|--------------10---------------------------------------------------|
|-9~---10-9~----8--10-----------------------------------------------|
|-7-----8-7---------8-----------------------------------------------|

B (0:31)
|-------------------------------------------------------------------|
|-------------------------------------------------------------------|
|-------------------------------------------------------------------|(2x)
|----------10-------------------10-----------10---------------12~---|
|-9999-99---8-10----9999-99--10--8---9999-99--8-10---9999-99--10----|
|-7777-77------8----7777-77---8------7777-77-----8---7777-77--------|

C (0:59) (lead)
|-----------7-----7~--5h--------------------------------------------|
|-5~--7~--8---7----------8-7-5--------------------------------------|
|-------------------------------------------------------------------|(2x)
|-------------------------------------------------------------------|
|-------------------------------------------------------------------|
|-------------------------------------------------------------------|

D (1:13) Solo 1
|-7~--8-7~------------------------7~--8~----------------------------|
|----------10-8~-10-8-7----7h8-10-----------------------------------|
|-----------------------9h------------------------------------------|
|-------------------------------------------------------------------|
|-------------------------------------------------------------------|
|-------------------------------------------------------------------|

E (1:21) Solo 2
|-7~--8-7~----------------------------------------------------------|
|----------10-8~-10-8-7----7h8-7h8p7/-------------------------------|
|-----------------------9h------------9~----------------------------|
|-------------------------------------------------------------------|
|-------------------------------------------------------------------|
|-------------------------------------------------------------------|

F (0:59) (chords)(this riff is in test-fase)
|-------------------------------------------------------------------|
|-------------------------------------------------------------------|
|-------------------------------------------------------------------|(1x)
|-------------------------------------------------------------------|
|-9------9--------9----------------77-------------------------------|
|-7-7777-7-77-777-7-7-777-999-1010----101097------------------------|
 p.m........................................
                          |------------------|
                           FAST - FAST - FAST
G (1:03)
|-------------------------------------------------------------------|
|-------------------------------------------------------------------|
|-------------------------------------------------------------------|(1x)
|-------------------------------------------------------------------|
|-9------9------9------10-10-10-9-----------------------------------|
|-7-7777-7-7777-7-7777--8--8--8-7-----------------------------------|
 p.m..................

Repeat riff F 1x, G 1x, F 1x, G 1x, F 1x, G 1x (1:07)
Repeat riff B 2x (1:27)

H (1:54)
|-------------------------------------------------------------------|
|-------------------------------------------------------------------|
|-------------------------------------------------------------------|(1x)
|-------------------------------------------------------------------|
|-222-2-222-222-222-------------------------------------------------|
|-000-0-000-000-000-------------------------------------------------|
        .   .   .
I
|-------------------------------------------------------------------|
|-------------------------------------------------------------------|
|-------------------------------------------------------------------|(1x)
|-------------------------------------------------------------------|
|-222-2-222-55-55-7-777---------------------------------------------|
|-000-0-000-33-33-5-555---------------------------------------------|
        .
Repeat riff H 1x

J
|-------------------------------------------------------------------|
|-------------------------------------------------------------------|
|-------------------------------------------------------------------|(1x)
|-------------------------------------------------------------------|
|-222-2-222-33-33-5-55-55-------------------------------------------|
|-000-0-000-11-11-3-33-33-------------------------------------------|
        .         .

Repeat riff H 1x, I 1x, H 1x, J 1x (2:10)

K (2:23)
|-------------------------------------------------------------------|
|-------------------------------------------------------------------|
|-------------------------------------------------------------------|(1x)
|----------------(3x)------------------(1x)-------------------------|
|-2---4---5---7---------2---4---5-7-9-------------------------------|
|-0---2---3---5---------0---2---3-5-7-------------------------------|
                                . . .

Repeat riff (2:36)
F+C 1x,
G 1x,
F+C 1x,
G 1x,
F+D 1x,
G 1x,
F+E 1x,
G 1x

Repeat riff (3:04)
H 1x,
I 1x,
H 1x,
J 1x,
H 1x,
I 1x,
H 1x,
J 1x,

Repeat riff K 2x (3:32)

END

  Visit MetalTabs.com for more metal tablature

bottom separator

Contact Us | Privacy Policy | Disclaimer | Legal Notice
Copyright © 2001-2014 MetalTabs.com. All Rights Reserved.