top separator

Home

Forum

What's New

Submit a Tab

FAQ

Links

Contact Us

Link to Us

MetalTabs.com logo

Bands

0-9

A

B

C

D

E

F

G

H

I

J

K

L

M

N

O

P

Q

R

S

T

U

V

W

X

Y

Z

Search

What

Where
 

Battlelore - "Thousand Caves" Guitar Tab

Plain Text Version
More Battlelore Tabs

Hits: 3165
Rated: 3.00 out of 5 (1 vote)
Updated: 2005-09-16 01:20:58

 

By:

Darkenelf

sendpm.gif

email.gif

Important note
This tab is available online because we obtained explicit permission from Battlelore or their label.


#----------------------------------PLEASE NOTE---------------------------------#
#This file is the author's own work and represents their interpretation of the #
#song. You may only use this file for private study, scholarship, or research. #
#Unless specified otherwise, this is NOT an official tab from the band members.#
#------------------------------------------------------------------------------#

  Visit MetalTabs.com for more metal tablature
  
Band: Battlelore
Album: Third Age of the Sun
Song: Thousand Caves

Copyright (c)(2005)
Version 0.1 - (04-09-2005)

Transcribed By: (Martijn Wietsma)
Email:          (asmundr@vikingblood.net)


.  - palm mute           /  - slide up to
\  - slide down to       ~  - vibrato
h  - hammer on           b  - Bend
p  - pull off            Suffixes for bend
t  - tap                 f  - full bend    h - half bend
ph - pinched harmonic    q  - quarter bend t - tap bend
*  - see comment         ^  - Hold bend    r release bend
x  - Stuccatto           ~  - vibrato bend
,  - slight palm mute    () - ghost note, sustained note
"  - tremolo note        <> - Trill

Tuning E A D G B E

A (Lead)
|---------5---------------------------------------------------------|
|-6-6-5-6---6-8-6---5-5-5-5--2-2-2-2--------------------------------|
|-------------------------------------------------------------------|
|-------------------------------------------------------------------|
|-------------------------------------------------------------------|
|-------------------------------------------------------------------|

|---------5-------------5----5-6-5----------------------------------|
|-6-6-5-6---6-8-6---8-8---8--------8--------------------------------|
|-------------------------------------------------------------------|
|-------------------------------------------------------------------|
|-------------------------------------------------------------------|
|-------------------------------------------------------------------|

B (0:11) (lead)
|---------5---------------------------------------------------------|
|-6-6-5-6---6-8-6---5-5-5-5--2-2-2-2--------------------------------|
|-------------------------------------------------------------------|
|-------------------------------------------------------------------|
|-------------------------------------------------------------------|
|-------------------------------------------------------------------|

|---------5---------6-6-6-6-----------------------------------------|
|-6-6-5-6---6-8-6------------2-2-2-2--------------------------------|
|-------------------------------------------------------------------|
|-------------------------------------------------------------------|
|-------------------------------------------------------------------|
|-------------------------------------------------------------------|

C (0:11) (chords)
|-------------------------------------------------------------------|
|-------------------------------------------------------------------|
|-------------------------------------------------------------------|(2x)
|-7-----------------------------------------------------------------|
|-5-55--8-----7-----------------------------------------------------|
|-------6-66--5-55--------------------------------------------------|
    ..    ..    ..

D (0:22) (chords)
|-------------------------------------------------------------------|
|-------------------------------------------------------------------|
|-------------------------------------------------------------------|(1x)
|-7-----------------------------------------------------------------|
|-5-5555-5555-5555-5555-8-----------7-------------------------------|
|-----------------------6-6666-6666-5-5555-5555---------------------|

E (0:27) (chords)
|-------------------------------------------------------------------|
|-------------------------------------------------------------------|
|-------------------------------------------------------------------|(1x)
|-7-----------------------------------------------------------------|
|-5-5555-5555-5555-5555-8----8-5-7-8-7------------------------------|
|-----------------------6-66-6-3-5-6-5------------------------------|

D (0:32) (chords)
|-------------------------------------------------------------------|
|-------------------------------------------------------------------|
|-------------------------------------------------------------------|(1x)
|-7-----------------------------------------------------------------|
|-5-5555-5555-5555-5555-8-----------7-------------------------------|
|-----------------------6-6666-6666-5-5555-5555---------------------|

F (0:38) (chords)
|-------------------------------------------------------------------|
|-------------------------------------------------------------------|
|-------------------------------------------------------------------|(1x)
|-7---------------------8-----------5-------------------------------|
|-5-5555-5555-5555-5555-6-6666-6666-3-3333-3333---------------------|
|-------------------------------------------------------------------|

Repeat D 1x, E 1x, D 1x, F 1x

G (0:22) (lead)
|-------------------------------------------------------------------|
|------------10-----------------------------------------------------|
|-7-10-9h10-----10--7-10--9h10p9-7-7--------------------------------|
|-------------------------------------------------------------------|
|-------------------------------------------------------------------|
|-------------------------------------------------------------------|

|-------------------------------------------------------------------|(2x)
|------------10-----10p8--------------------------------------------|
|-7-10-9h10-----10-------10-9~-(10p9h10)----------------------------|
|-------------------------------------------------------------------|
|-------------------------------------------------------------------|
|-------------------------------------------------------------------|

Repeat riff A 1x (0:43)
Repeat riff B 1x (0:48)
Repeat riff A 1x (0:53)
Repeat riff B 1x (0:59)

H (1:04)
|-------------------------------------------------------------------|
|-------------------------------------------------------------------|
|-------------------------------------------------------------------|
|-77----7--7----7--7----5----5----5---------------------------------|
|-55-55-5--5-55-5--5-55-3-33-3-33-3---------------------------------|
|-------------------------------------------------------------------|
     ..      ..      ..   ..   ..

I (1:10)
|-------------------------------------------------------------------|
|-------------------------------------------------------------------|
|-------------------------------------------------------------------|(2x)
|-77----7--7----7--7----7-------------5-----------------------------|
|-55-55-5--5-55-5--5-55-5-55--5---578---87-875----------------------|
|-------------------------------8-----------------------------------|
     ..      ..      ..   ....................

J (1:20)
|-------------------------------------------------------------------|
|-------------------------------------------------------------------|
|-------------------------------------------------------------------|(2x)
|-------------------------------------------7-----------------------|
|-33----3----3--3----3----3-----7----7h9h10---109-1097--------------|
|-11-11-1-11-1--1-11-1-11-1-11----10--------------------------------|
     ..   ..      ..   ..   ..

Repeat riff H 1x (1:31)
Repeat riff D 1x (1:37)
Repeat riff E 1x (1:42)
Repeat riff D 1x (1:48)
Repeat riff F 1x (1:53)

K (1:58)
|-------------------------------------------------------------------|
|-------------------------------------------------------------------|
|-------------------------------------------------------------------|(4x)
|-77~-77-77---55-55-55---77~-77-77---3-5--55-55---------------------|
|-55--55-55---33-33-33---55--55-55---1-3--33-33---------------------|
|-------------------------------------------------------------------|

Repeat riff I 3x (2:41)
Repeat riff J 2x

Repeat riff H 1x (3:08)

(keyboard + drums at 3:13)

L (Keyboard solo for guitar) (3:24)
|-------------------------------------------------------------------|
|-------10~-------------------10~--10-8p----------------------------|
|-7-10-------7-10--9~---7-10-------------10p9~----------------------|(1x)
|-------------------------------------------------------------------|
|-------------------------------------------------------------------|
|-------------------------------------------------------------------|

M (3:35)
|-------------------------------------------------------------------|
|-------------------------------------------------------------------|
|-------------------------------------------------------------------|(1x)
|-7~-------------7~---------7~--------------7~----------------------|
|-5---8~--7~-----5---8~-----5---8~--7~------5---8~--7~--------------|
|-----6---5----------6----------6---5-----------6---5---------------|

N
H (1:04)
|-------------------------------------------------------------------|
|-------------------------------------------------------------------|
|-------------------------------------------------------------------|(1x)
|-77----7--7----7--7----5----5----5---------------------------------|
|-55-55-5--5-55-5--5-55-3-33-3-33-3---33----------------------------|
|-------------------------------------------------------------------|
     ..      ..      ..   ..   ..     ..

END

  Visit MetalTabs.com for more metal tablature

bottom separator

Contact Us | Privacy Policy | Disclaimer | Legal Notice
Copyright © 2001-2014 MetalTabs.com. All Rights Reserved.