top separator

Home

Forum

What's New

Submit a Tab

FAQ

Links

Contact Us

Link to Us

MuSpy.com

MetalTabs.com logo

Bands

0-9

A

B

C

D

E

F

G

H

I

J

K

L

M

N

O

P

Q

R

S

T

U

V

W

X

Y

Z

Search

What

Where
 

Battlelore - "Swordmaster" Guitar Tab

Plain Text Version
More Battlelore Tabs

Hits: 2365
Updated: 2005-09-16 00:58:26

 

By:

Theoldman

sendpm.gif

email.gif

Important note
This tab is available online because we obtained explicit permission from Battlelore or their label.


#----------------------------------PLEASE NOTE---------------------------------#
#This file is the author's own work and represents their interpretation of the #
#song. You may only use this file for private study, scholarship, or research. #
#Unless specified otherwise, this is NOT an official tab from the band members.#
#------------------------------------------------------------------------------#

  Visit MetalTabs.com for more metal tablature
  
Band:  Battlelore
Album: ...Where the Shadows Lie
Song:  Swordmaster

Copyright (c)  Napalm Records 2002
Version 1.0 - 3.9.2005

Transcribed By: Theoldman
Email:          swordbearing@hotmail.com
________________________________________

.  - palm mute           /  - slide up to
\  - slide down to       ~  - vibrato
h  - hammer on           b  - Bend
p  - pull off            Suffixes for bend
t  - tap                 f  - full bend    h - half bend
ph - pinched harmonic    q  - quarter bend t - tap bend
*  - see comment         ^  - Hold bend    r release bend
x  - Stuccatto           ~  - vibrato bend
,  - slight palm mute    () - ghost note, sustained note
"  - tremolo note        <> - Trill

Tuning B E A D G B

Riff 1 (0:12-0:24)
|----------------|------------------|
|----------------|------------------|
|----------------|------------------|
|----------------|------------------|
|----7-----8-----|7-----10------8-5-|
|0000--0000--0000|--0000---0000-----|
 ....  ....  ....   ....   ....
|----------------|------------------|
|----------------|------------------|
|----------------|------------------|
|----------------|5--------5-7-7----|
|7-----8-----7---|3------3-3-5-5----|
|--0000--0000--00|------------------|
   ....  ....  ..        .
|----------------|------------------|
|----------------|------------------|
|----------------|------------------|
|----------------|------------------|
|----7-----8-----|7-----10------8-5-|
|0000--0000--0000|--0000---0000-----|
 ....  ....  ....   ....   ....
|----------------|------------------|
|----------------|--------6---------|
|----------------|5-------4-7-9-----|
|----------------|3-----3---5-7-----|
|7-----8-----7---|------------------|
|--0000--0000--00|------------------|
   ....  ....  ..       .



Riff 2 (0:25-0:49)
|----------------|----------------|----------------|------------------|
|----------------|----------------|----------------|------------------|
|----------------|----------------|----------------|------------------|
|----9-----9-----|9-----9-----7---|----9-----9-----|9-----9-10-10-9-9-|
|----7-----7-----|7-----7-----5---|----7-----7-----|7-----7-8--8--7-7-|
|0000--0000--0000|--0000--0000----|0000--0000--0000|--0000------------|
 ....  ....  ....   ....  ....     ....  ....  ....   ....
|----------------|----------------|----------------|----------------|
|----------------|----------------|----------------|----------------|
|----------------|----------------|----------------|--------7-7-9---|
|----9-----9-----|9-----9-----7---|----9-----9-----|9-----9-5-5-7---|
|----7-----7-----|7-----7-----5---|----7-----7-----|7-----7---------|
|0000--0000--0000|--0000--0000----|0000--0000--0000|--0000----------|
 ....  ....  ....   ....  ....     ....  ....  ....   ....
|----------------|----------------|----------------|------------------|
|----------------|----------------|----------------|------------------|
|----------------|----------------|----------------|------------------|
|----9-----9-----|9-----9-----7---|----9-----9-----|9-----9-10-10-9-9-|
|----7-----7-----|7-----7-----5---|----7-----7-----|7-----7-8--8--7-7-|
|0000--0000--0000|--0000--0000----|0000--0000--0000|--0000------------|
 ....  ....  ....   ....  ....     ....  ....  ....   ....
|----------------|----------------|----------------|------------------|
|----------------|----------------|----------------|------------------|
|----------------|----------------|----------------|------------------|
|----9-----9-----|9-----9-----7---|----9-----9-----|9-----9-10-10-7-7-|
|----7-----7-----|7-----7-----5---|----7-----7-----|7-----7-8--8--5-5-|
|0000--0000--0000|--0000--0000----|0000--0000--0000|--0000------------|
 ....  ....  ....   ....  ....     ....  ....  ....   ....



Riff 3 (0:50-1:01)
|-----------------|-----------------|
|-----------------|-----------------|
|-----------------|-----------------|
|----9-----10-----|2-----9-----10-9-|
|----7-----8------|2-----7-----8--7-|
|0000--0000---0000|0-0000--0000-----|
 ....  ....   ....   ....  ....
|-----------------|----------------|
|-----------------|----------------|
|-----------------|------------7-9-|
|----9-----10-----|2-----9-----5-7-|
|----7-----8------|2-----7---------|
|0000--0000---0000|0-0000--0000----|
 ....  ....   ....   ....  ....
|-----------------|------------------|
|-----------------|------------------|
|-----------------|------------------|
|----9-----10-----|2-----9------10-9-|
|----7-----8------|2-----7------8--7-|
|0000--0000---0000|0-0000--0000------|
 ....  ....   ....   ....  ....
|-----------------|-----------------|
|-----------------|-----------------|
|-----------------|-----------------|
|----9-----10-----|2-----9--------9-|
|----7-----8------|2-----7-8--10----|
|0000--0000---0000|0-0000-----------|
 ....  ....   ....   ....



Riff 4 (1:02-1:14)
|-----------------|------------------|
|-----------------|------------------|
|-----------------|------9------10-7-|
|----7-----10-----|9-----------------|
|-----------------|------------------|
|0000--0000---0000|--0000--0000------|
 ....  ....  ....    ....  ....
|-----------------|----------------|
|-----------------|----------------|
|-----------------|----------------|
|----7-----10-----|9-----7-----5-9-|
|-----------------|----------------|
|0000--0000---0000|--0000--0000----|
 ....  ....  ....    ....  ....
|-----------------|------------------|
|-----------------|------------------|
|-----------------|------9------10-7-|
|----7-----10-----|9-----------------|
|-----------------|------------------|
|0000--0000---0000|--0000--0000------|
 ....  ....  ....    ....  ....
|-----------------|----------------|
|-----------------|----------------|
|-----------------|-----------4----|
|----7-----10-----|9-----7-5-----2-|
|-----------------|----------------|
|0000--0000---0000|--0000----------|
 ....  ....  ....    ....



Riff 5 (1:15-1:39)
|-----------------------------------|
|-----------------------------------|
|-----------------------------------|
|----------------10-----10-----10---|
|7-----7-----7---8--8-8-8--8-8-8--8-|
|5-5-5-5-5-5-5-5--------------------|
   . .   . .   .    . .    . .    .
|--------------------------------|
|--------------------------------|
|--------------------------------|
|----------------5-----7-----7---|
|7-----7-----7---3-3-3-5-5-5-5-5-|
|5-5-5-5-5-5-5-5-----------------|
   . .   . .   .   . .   . .   .
|-----------------------------------|
|-----------------------------------|
|-----------------------------------|
|----------------10-----10-----10---|
|7-----7-----7---8--8-8-8--8-8-8--8-|
|5-5-5-5-5-5-5-5--------------------|
   . .   . .   .    . .    . .    .
|---------------------------------|
|---------------------------------|
|---------------------------------|
|9-----9-----9---10--9--7-5--7--9-|
|7-7-7-7-7-7-7-7-8---7--5-3--5--7-|
|---------------------------------|
   . .   . .   .



Riff 6 (1:40-2:03)
|----------------|----------------|----------------|----------------|
|----------------|----------------|----------------|----------------|
|----9-----7-----|9-----5-----7-9-|----9-----7-----|9-----5-----5-4-|
|----7-----5-----|7-----3-----5-7-|----7-----5-----|7-----3-----3-2-|
|0-0---0-0---0-0-|--0-0---0-0-----|0-0---0-0---0-0-|--0-0---0-0-----|
|----------------|----------------|----------------|----------------|
 . .   . .   . .    . .   . .      . .   . .   . .    . .   . .
|----------------|----------------|----------------|----------------|
|----------------|----------------|----------------|----------------|
|----9-----7-----|9-----5-----7-9-|----9-----7-----|9-----5---------|
|----7-----5-----|7-----3-----5-7-|----7-----5-----|7-----3-7---9---|
|0-0---0-0---0-0-|--0-0---0-0-----|0-0---0-0---0-0-|--0-0---5---7---|
|----------------|----------------|----------------|----------------|
 . .   . .   . .    . .   . .      . .   . .   . .    . .



Riff 1 (2:04-2:28)



Riff 7 (2:29)
|---------------------------|
|---------------------------|
|---------------------------|
|---------------------------|
|7--------------------------|
|5--------------------------|



Riff 8 (acoustic) (you need highest E in this riff) (2:32-2:56)
|----0-----0-----|----0-----0-----|E
|----------------|----------------|B
|--4-----4-----4-|--4-----4-----4-|G
|2-----2-----2---|2-----2-----2---|D
|----------------|----------------|A
|----------------|----------------|E

|----0-----0-----|----0-----0-----|E
|----------------|----------------|B
|--2-----2-----2-|----------------|G
|0-----0-----0---|--5-----5-----5-|D
|----------------|3-----3-----3---|A
|----------------|----------------|E



Riff 9 (acoustic) (2:45-2:56)
|---------------|---------------|----------------|-------------|E
|0--------------|---------------|----------------|-------------|B
|------2--------|------0--------|------0---------|-------------|G
|---------------|---------------|2-----------4---|2------------|D
|---------------|---------------|----------------|-------------|A
|---------------|---------------|----------------|-------------|E

|---------------|---------------|----------------|-------------|E
|---------------|---------------|----------------|-------------|B
|4-2-0-2--------|2-0---0--------|------0---------|-------------|G
|---------------|----2----------|2-----------4---|0------------|D
|---------------|---------------|----------------|-------------|A
|---------------|---------------|----------------|-------------|E



Riff 10 (acoustic) (2:57-3:21)
|----------------|----------------|----------------|----------------|E
|----0-----0---0-|----------------|----------------|----------------|B
|--2-----2-------|----------------|--0-2---0-2---2-|--0-2---0-2---2-|G
|2-----2-----2---|--2-4---2-4---4-|0-----0-----0---|0-----0-----0---|D
|----------------|2-----2-----2---|----------------|----------------|A
|----------------|----------------|----------------|----------------|E

|----------------|----------------|----------------|----------------|E
|----0-----0---0-|----------------|----2-----2---2-|----2-----2---2-|B
|--2-----2-------|----------------|--4-----4-------|--4-----4-------|G
|2-----2-----2---|--2-4---2-4---4-|4-----4-----4---|4-----4-----4---|D
|----------------|2-----2-----2---|----------------|----------------|A
|----------------|----------------|----------------|----------------|E



Riff 11 (3:22-3:46)
|--------------------------------|
|--------------------------------|
|--------------------------------|
|--------------------------------|
|7-----7-----7---7-----7-----7---|
|5-5-5-5-5-5-5-5-5-5-5-5-5-5-5-5-|
   . .   . .   .   . .   . .   .
|--------------------------------|
|--------------------------------|
|--------------------------------|
|9-----9-----9---7-----7-----7---|
|7-7-7-7-7-7-7-7-5-5-5-5-5-5-5-5-|
|--------------------------------|
   . .   . .   .   . .   . .   .
|--------------------------------|
|--------------------------------|
|--------------------------------|
|5-----5-----5-------------------|
|3-3-3-3-3-3-3-3-7-----7-----7---|
|----------------5-5-5-5-5-5-5-5-|
   . .   . .   .   . .   . .   .
|--------------------------------|
|--------------------------------|
|--------------------------------|
|4-----4-----4---4-----4-----5---|
|2-2-2-2-2-2-2-2-2-2-2-2-2-2-3---|
|--------------------------------|
   . .   . .   .   . .   . .



Riff 12 (3:47-4:11)
|----------------|----------------|
|----------------|----------------|
|----------------|----------------|
|----------------|----------------|
|--7-----7---7---|--7-----7---7---|
|5-5---5-5-5-5-5-|5-5---5-5-5-5-5-|
 .     .   .   .  .     .   .   .
|----------------|----------------|
|----------------|----------------|
|----------------|----------------|
|----------------|----------------|
|--5-----5---5---|--3-----3---3---|
|3-3---3-3-3-3-3-|1-1---1-1-1-1-1-|
 .     .   .   .  .     .   .   .
|----------------|----------------|
|----------------|----------------|
|----------------|----------------|
|----------------|----------------|
|--7-----7---7---|--7-----7---7---|
|5-5---5-5-5-5-5-|5-5---5-5-5-5-5-|
 .     .   .   .  .     .   .   .
|----------------|----------------|
|----------------|----------------|
|----------------|----------------|
|--5-----5---5---|----------------|
|3-3---3-3-3-3-3-|--5-----5---5---|
|----------------|3-3---3-3-3-3-3-|
 .     .   .   .  .     .   .   .



Riff 7 (4:12)

Riff 6 (4:15-4:27)



Riff 13 (4:28-5:04)
|----------------|----------------|
|----------------|----------------|
|----------------|------------7-9-|
|----2-----2-----|2-----2-----5-7-|
|0---0---0-0---0-|0---0-0---0-----|
|----------------|----------------|
 .       .     .      .     .
|----------------|----------------|
|----------------|----------------|
|----------------|------------5-4-|
|----2-----2-----|2-----2-----3-2-|
|0---0---0-0---0-|0---0-0---0-----|
|----------------|----------------|
 .       .     .      .     .
|----------------|----------------|
|----------------|----------------|
|----------------|------------7-9-|
|----2-----2-----|2-----2-----5-7-|
|0---0---0-0---0-|0---0-0---0-----|
|----------------|----------------|
 .       .     .      .     .
|----------------|----------------|
|----------------|----------------|
|----------------|5-----4---------|
|----2-----2-----|3-----2-----5---|
|0---0---0-0---0-|------------3---|
|----------------|----------------|
 .       .     .



Riff 6 (5:05-5:29)

Riff 7 (5:30)



END

  Visit MetalTabs.com for more metal tablature

bottom separator

Contact Us | Privacy Policy | Disclaimer | Legal Notice
Copyright © 2001-2014 MetalTabs.com. All Rights Reserved.