top separator

Home

Forum

What's New

Submit a Tab

FAQ

Links

Contact Us

Link to Us

MuSpy.com

MetalTabs.com logo

Bands

0-9

A

B

C

D

E

F

G

H

I

J

K

L

M

N

O

P

Q

R

S

T

U

V

W

X

Y

Z

Search

What

Where
 

Gorerotted - "Limb by Limb" Guitar Tab

Plain Text Version
More Gorerotted Tabs

Hits: 2122
Rated: 5.00 out of 5 (1 vote)
Updated: 2005-09-16 00:53:30

 

By:

Robbie Filth

sendpm.gif

email.gif

Important note
This tab is available online because we obtained explicit permission from Gorerotted or their label.


#----------------------------------PLEASE NOTE---------------------------------#
#This file is the author's own work and represents their interpretation of the #
#song. You may only use this file for private study, scholarship, or research. #
#Unless specified otherwise, this is NOT an official tab from the band members.#
#------------------------------------------------------------------------------#

  Visit MetalTabs.com for more metal tablature
  
Band: Gorerotted
Album: Her Gash I did Slash
Song: Limb By Limb
Record Label: ~?~
Tuning: D G C F A D

-------------------
-------------------
-------------------
-------------------
-6-5---5--6-5---5--
-4-3-0-3--4-3-0-3--X4
     PM.      . .

-4-3---3--
-----2----
----------
----------
----------
----------X8

-------------------
-------------------
-------------------
-------------------
-6-5---5--6-5---5--
-4-3-0-3--4-3-0-3--X4
     PM.      . .

-4-3---3--
-----2----
----------
----------
----------
----------X8

-------------------
-------------------
-------------------
-------------------
-6-5---5--6-5---5--
-4-3-0-3--4-3-0-3--X4
     PM.      . .

---------------------
---------------------
---------------------
-2-22-6---3----------
-0-00-4-0-1-0-1-0-1--
------------0-1-0-1--X8
   pm   .   . . . .

------------------------------------------
------------------------------------------
------------------------------------------
------------------------------------------
-------------------------------7-8-10-11--
-5-6-7-8-10-8-7-6-X3--5-7-8-10------------X4

---------------------
---------------------
---------------------
-2-22-6---3----------
-0-00-4-0-1-0-1-0-1--
------------0-1-0-1--X8
   pm   .   . . . .


-------------------
-------------------
-------------------
-------------------
-6-5---5--6-5---5--
-4-3-0-3--4-3-0-3--X8
     PM.      . .

-4-3---3--
-----5----
----------
----------
----------
----------X16

-------------------
-------------------
-------------------
-------------------
-6-5---5--6-5---5--
-4-3-0-3--4-3-0-3--X4
     PM.      . .

-------------------------
-------------------------
-------------------------
-------------------------
-00004444001111----------
---------------00110011--X4
 Trem..................

-----
-----
-----
-----
-2-2-
-0-0-
 pm.

any corrections mail them to septic_flesh241@hotmail.com

  Visit MetalTabs.com for more metal tablature

bottom separator

Contact Us | Privacy Policy | Disclaimer | Legal Notice
Copyright © 2001-2014 MetalTabs.com. All Rights Reserved.