top separator

Home

Forum

What's New

Submit a Tab

FAQ

Links

Contact Us

Link to Us

MetalTabs.com logo

Bands

0-9

A

B

C

D

E

F

G

H

I

J

K

L

M

N

O

P

Q

R

S

T

U

V

W

X

Y

Z

Search

What

Where
 

Ivory Knight - "Initiation" Guitar Tab

Plain Text Version
More Ivory Knight Tabs

Hits: 1767
Updated: 2005-09-16 00:47:03

 

By:

blackjacques

sendpm.gif

email.gif

Important note
This tab is available online because we obtained explicit permission from Ivory Knight or their label.


#----------------------------------PLEASE NOTE---------------------------------#
#This file is the author's own work and represents their interpretation of the #
#song. You may only use this file for private study, scholarship, or research. #
#Unless specified otherwise, this is NOT an official tab from the band members.#
#------------------------------------------------------------------------------#

  Visit MetalTabs.com for more metal tablature
  
Band:   Ivory Knight
Album:  Up from the Ashes
Song:   Initiation

Copyright (c)  Ivory Knight 2001
Version 1.0

Transcribed By: Rob Gravelle
Email:          blackjacques@musician.org


.  - palm mute           /  - slide up to
\  - slide down to       ~  - vibrato
h  - hammer on           b  - Bend
p  - pull off            Suffixes for bend
t  - tap                 f  - full bend    h - half bend
ph - pinched harmonic    q  - quarter bend t - tap bend
*  - see comment         ^  - Hold bend    r release bend
x  - Stuccatto           ~  - vibrato bend
,  - slight palm mute    () - ghost note, sustained note
"  - tremolo note        <> - Trill

Tuning E A D G B E

82 Bpm - classical guitar feel

     Am             Am/D#                   Amadd9        D#dim      E7
E||---------12---0-----------------------|---------8----0------------------0-|
B||---------10---10---------10\----------|---------0----0-------10-----------|
G||-------9-----------------9\-----------|-------9--------------8--------7---|
D||----10--------------------------7-6---|----10-----10----------------9-----|
A||--0---------0---------------6-7-------|--0-------------6~--6----8-7-------|
E||-----------------11---11------------7-|-----------------------------------|


  Am            Am/D#                   C           Bbadd11+
---------0---------------------------|------------------------0--------||
-----------10-----------10-----------|---------------------------------||
-------9------9---------9------------|--------5-------------7-----7---*||
----10-------------------------7-6---|------5---5---8-----8---------8-*||
--0------------------------6-7-------|----7---------8---8-------8------||
----------------11---11------------7-|--8---------5-6------------------||


  Bm                              Fadd11+
-------------------------------|----------------------------------|
---------3---------3-----------|---------------0------0h1h0-------|
--4----4-----4-------4---4-----|---------2--------2---------2-----|
--4--4-------4-------------4---|-------3---3--------3---------3---|
--2--------2-----2-----2-----0-|-----3-------3------------------3-|
-------------------------------|--1-------------------------------|


  Bbsus2                           E9-             Asus4
---------------1----------------|----------0-------------0---------|
---------1-----1---1------------|--------3---3-------------3-------|
-------3---3---------3-----3----|------4-------4-------2-----2-----|
-----3-------3---------3--------|----3---------------2---------2---|
--1--------------1-------1---0--|------------------0-------------4-|
--------------------------------|--4-------------0-----------------|


  Bmadd11                           Fadd11+
-----------------------0h2h0-----|---------------------------------|
---------3---------3---------3---|---------------0--------1--0-----|
-------4-----4~------4-----------|---------2--------2-----2--2--2--|
-----4-------4~------------------|-------3---3--------3---------3--|
--2--------2-----2-------------0-|-----3-------3--------3----------|
---------------------------------|--1------------------------------|


  Bbsus2                           E9-             Bdim   Ddim Eadd9
---------------1----------------|----------0-----------------------|
---------1-----1---1------------|--------3---3-----6-------9---12--|
-------3---3---------3-----3----|------4-------4---7-7-----10--10--|
-----3-------3---------3--------|----3-------------6---6---9---9---|
--1--------------1-------1---0--|----------------------------------|
--------------------------------|--4-------------4/7-----7/10--0---|


  Am             Am/D#                   Amadd9        D#dim      E7
---------12---0-----------------------|---------8----0------------------0-|
---------10---10---------10\----------|---------0----0-------10-----------|
-------9-----------------9\-----------|-------9--------------8--------7---|
----10--------------------------7-6---|----10-----10----------------9-----|
--0---------0---------------6-7-------|--0-------------6~--6----8-7-------|
-----------------11---11------------7-|-----------------------------------|


  Am            Am/D#                   C
---------0---------------------------|--------------------------------|
-----------10-----------10-----------|----------------------6---5-----|
-------9------9---------9------------|--------5-------------7---7---7-|
----10-------------------------7-6---|------5---5---8-----8---------8-|
--0------------------------6-7-------|----7---------8---8-----8---8---|
----------------11---11------------7-|--8---------5-6-----------------|


  Am             Am/D#                   Amadd9        D#dim      E7
---------12---0-----------------------|---------8----0------------------0-|
---------10---10---------10\----------|---------0----0-------10-----------|
-------9-----------------9\-----------|-------9--------------8--------7---|
----10--------------------------7-6---|----10-----10----------------9-----|
--0---------0---------------6-7-------|--0-------------6~--6----8-7-------|
-----------------11---11------------7-|-----------------------------------|


  Am            Am/D#                   C
---------0---------------------------|----------|
-----------10-----------10-----------|----------|
-------9------9---------9------------|----------|
----10-------------------------7-6---|--5---5---|
--0------------------------6-7-------|--7---7---|
----------------11---11------------7-|--8---8---|


  Bbadd11+                           Amadd9
----------------------------------|--0----------------||
----------5-----------------------|--0----------------||
--7-----7-7-----7-5-----5-5---0---|--5----------------||
--8---8-------8-8-8---8-8-7-----7-|--7----------------||
--8-8-------8-------8-------8-----|--0----------------||
--6-------------------------------|-------------------||

END

  Visit MetalTabs.com for more metal tablature

bottom separator

Contact Us | Privacy Policy | Disclaimer | Legal Notice
Copyright © 2001-2014 MetalTabs.com. All Rights Reserved.