top separator

Home

Forum

What's New

Submit a Tab

FAQ

Links

Contact Us

Link to Us

MetalTabs.com logo

Bands

0-9

A

B

C

D

E

F

G

H

I

J

K

L

M

N

O

P

Q

R

S

T

U

V

W

X

Y

Z

Search

What

Where
 

After Forever - "Attendance" Guitar Tab

Plain Text Version
More After Forever Tabs

Hits: 3996
Rated: 3.75 out of 5 (4 votes)
Updated: 2005-09-16 00:46:25

 

By:

thedarkdream

sendpm.gif

email.gif

Important note
This tab is available online because we obtained explicit permission from After Forever or their label.


#----------------------------------PLEASE NOTE---------------------------------#
#This file is the author's own work and represents their interpretation of the #
#song. You may only use this file for private study, scholarship, or research. #
#Unless specified otherwise, this is NOT an official tab from the band members.#
#------------------------------------------------------------------------------#

  Visit MetalTabs.com for more metal tablature
  
Band:  After Forever
Album: Remagine
Song:  Attendance

Copyright (c)  Transmission Records, 2005
Version 1.1 - 2.09.2005

Transcribed By: thedarkdream (chr) - Sopa Christian
Email:          darkchr@gmail.com

. = palm mute
* = tremolo note
~ = vibrato

Intro (0:14)

e[-------------------------------------------------------------]
B[-------------------------------------------------------------]
G[-------------------------------------------------------------]
D[-------------------------------------------------------------]
A[--------------------------------------------------------2-3--]
E[--2-0-2-0-2-3~~~~--2-0-2-0-1-2-3~~-2-0-2-0-2-3~~~~--3-4------]
 (2x)

Main Riff (0:26)

e[-------------------------------------------------------------]
B[-------------------------------------------------------------]
G[-------------------------------------------------------------]
D[-------------------------------------------------------------]
A[------------5------------------5-------------5----------2-3--]
E[--2-0-2-0-2-3------2-0-2-0-1-2-3---2-0-2-0-2-3------3-4------]
 PM . . . . .        . . . . . .     . . . . .
 (2x)

Verse 1 (0:38)

e[-----------------------------------]
B[-----------------------------------]
G[--2------5----7----2---------------]
D[--2------5----7----2-------4----3--]
A[--0------3----5----0-------4----3--]
E[---------------------------2----1--]

Repeat Main Riff (0:52) (2x)
Repeat Verse 1 (1:04)

Verse 2 (1:19)


e[-----------------------------------]
B[-----------------------------------]
G[---------------------------6----5--]
D[--2------5----7----2-------6----5--]
A[--2------5----7----2-------4----3--]
E[--0------3----5----0---------------]

Interlude (1:32)

e[------------------------------------|------------------------------------]
B[-----------------10-----8-----7-8---|----------------10-----8-----6-8----]
G[----7-9---9-10------9-----9-------8-|---7-9---9-10------9-----9-------5--]
D[--0-----0------0------0-----0-------|-0-----0------0------0-----0--------]
A[------------------------------------|------------------------------------]
E[------------------------------------|------------------------------------]

e[------------------------------------|------------------------------------]
B[-----------------10-----8-----7-8---|----------------12----10-----6-5-4--]
G[----7-9---9-10------9-----9-------8-|---7-9---9-10-----10-----9----------]
D[--0-----0------0------0-----0-------|-0-----0------0------0-----0--------]
A[------------------------------------|------------------------------------]
E[------------------------------------|------------------------------------]

Fast Riff (1:46)

 * = tremolo
e[-------------------------------------------------]
B[-------------------------------------------------]
G[-------------------------------------------------]
D[------------------------------------------3------]
A[--0*----------0*--5*------0*----------0*--1---6--]
E[------0*--3*----------3*------0*--3*----------4--]

Another interlude (2:14)

e[--------------------|------------]
B[--------(4x)--------|------------]
G[--------------------|--------------> Play the other interlude
D[--7--77-7--7--7777--|--7---------]    at the same time with the
A[--5--55-5--5--5555--|--5--8-7-6--]    long power chord
E[--------------------|------------]
 PM .  .. .  .  ....        . . .

Repeat Intro (2:42)
Repeat Verse 1 (2:54)

  Visit MetalTabs.com for more metal tablature

bottom separator

Contact Us | Privacy Policy | Disclaimer | Legal Notice
Copyright © 2001-2014 MetalTabs.com. All Rights Reserved.