top separator

Home

Forum

What's New

Submit a Tab

FAQ

Links

Contact Us

Link to Us

MuSpy.com

MetalTabs.com logo

Bands

0-9

A

B

C

D

E

F

G

H

I

J

K

L

M

N

O

P

Q

R

S

T

U

V

W

X

Y

Z

Search

What

Where
 

Gorerotted - "Mutilated In Minutes, Severed In Seconds" Guitar Tab

Plain Text Version
More Gorerotted Tabs

Hits: 3353
Rated: 5.00 out of 5 (1 vote)
Updated: 2005-09-16 00:41:28

 

By:

Robbie Filth

sendpm.gif

email.gif

Important note
This tab is available online because we obtained explicit permission from Gorerotted or their label.


#----------------------------------PLEASE NOTE---------------------------------#
#This file is the author's own work and represents their interpretation of the #
#song. You may only use this file for private study, scholarship, or research. #
#Unless specified otherwise, this is NOT an official tab from the band members.#
#------------------------------------------------------------------------------#

  Visit MetalTabs.com for more metal tablature
  
Band: Gorerotted
Album: Mutilated In Minutes
Song: Mutilated In Minutes, Severed In Seconds
Record Label: Relapse
Tuning: D G C F A D

-------------------
-------------------
-------------------
-------------------
-2-4-2-4-------4---
-0-2-0-2-0-2-0-----X8
          bend the 2 and 4 slightly

-------------------------------------------
-------------------------------------------
-------------------------------------------
-------------------------------------------
-2-4-2-4--------------2-4-2-4--------------
-0-2-0-2-*drum fill*--0-2-0-2-*bass fill*--

-------------------
-------------------
-------------------
-------------------
-2-4-2-4-------4---
-0-2-0-2-0-2-0-----
          bend the 2 and 4 slightly

-------------------------------------------------------
-------------------------------------------------------
-------------------------------------------------------
-------------------------------------------------------
-2-4-2-4-----------------------------------------------
-0-2-0-2-*bass slides down neck and goreskin grunts*---

-----------------
-----------------
-----------------
-----------------
3-4-----3-4-3-4--
1-2-1-2-----1-2--X2
pm.    trem... pm.

--------------
--------------
--------------
-----5-6------
-3-4-3-4-3-4--
-1-2-----1-2--
let chords ring

--------------
--------------
--------------
--------------
-----3-4-3-4--
-1-2-----1-2--
 trem... pm.

----------------------------------------------
----------------------------------------------
----------------------------------------------
---3/4\3---3/4\3-3/4\3---3/4\3----------------
---1/2\1---1/2\1-1/2\1---1/2\1---3/4\3-3/4\3--
-0-------0-------------0-------0-1/2\1-1/2\1--X4
pm       .             .       .

----------------------------------
----------------------------------
----------------------------------
----------------------------------
----------------------------------
-6-3-4-1-6-3-4-1-6-3-4-1-6-3-4-1--X4
 trem...........................

----------------------------------------------
----------------------------------------------
----------------------------------------------
---3/4\3---3/4\3-3/4\3---3/4\3----------------
---1/2\1---1/2\1-1/2\1---1/2\1---3/4\3-3/4\3--
-0-------0-------------0-------0-1/2\1-1/2\1--X4
pm       .             .       .

--------------------------------
--------------------------------
--------------------------------
---3/4\3---3/4\3-3/4\3---3/4\3--
---1/2\1---1/2\1-1/2\1---1/2\1--
-0-------0-------------0--------
pm       .             .

-------------------
-------------------
-------------------
-------------------
-2-4-2-4-------4---
-0-2-0-2-0-2-0-----X4
          bend the 2 and 4 slightly

-------------------------------------------
-------------------------------------------
-------------------------------------------
-------------------------------------------
-2-4-2-4--------------2-4-2-4--------------
-0-2-0-2-*drum fill*--0-2-0-2-*bass fill*--

-------------------
-------------------
-------------------
-------------------
-2-4-2-4-------4---
-0-2-0-2-0-2-0-----
          bend the 2 and 4 slightly

-------------------------------------------------------
-------------------------------------------------------
-------------------------------------------------------
-------------------------------------------------------
-2-4-2-4-----------------------------------------------
-0-2-0-2-*bass slides down neck and goreskin grunts*---

----------------------
----------------------
----------------------
----------------------
---2/4---2/3---3-1-4--
-2-----2-----2--------X8
pm     .     . trem..

----------------------------------
----------------------------------
----------------------------------
----------------------------------
----------------------------------
-6-3-4-1-6-3-4-1-6-3-4-1-6-3-4-1--X2
 trem...........................

---------------------------------------------------
---------------------------------------------------
---------------------------------------------------
---------------------------------------------------
-222-222-222-222------------222-222-222-222--------
-000-000-000-000-3-1-4-(X3)-000-000-000-000-3-4-1--
 pm. ... ... ... trem.      pm. ... ... ... trem..

----------------------------------------------
----------------------------------------------
----------------------------------------------
----------------------------------------------
-222-222-222-222-------222-222-222-222--------
-000-000-000-000-3-1-4-000-000-000-000-3-4-1--X2
 pm. ... ... ... trem. pm. ... ... ... trem..

----------------------------------
----------------------------------
----------------------------------
----------------------------------
----------------------------------
-6-3-4-1-6-3-4-1-6-3-4-1-6-3-4-1--X4
 trem...........................

----------------------------------------------
----------------------------------------------
----------------------------------------------
---3/4\3---3/4\3-3/4\3---3/4\3----------------
---1/2\1---1/2\1-1/2\1---1/2\1---3/4\3-3/4\3--
-0-------0-------------0-------0-1/2\1-1/2\1--X2
pm       .             .       .

-----------------
-----------------
-----------------
-----------------
-2----8-9-3-4-2--
-0----6-7-1-2-0--
      pm. . . .

Any corrections mail them to septic_flesh241@hotmail.com

  Visit MetalTabs.com for more metal tablature

bottom separator

Contact Us | Privacy Policy | Disclaimer | Legal Notice
Copyright © 2001-2014 MetalTabs.com. All Rights Reserved.