top separator

Home

Forum

What's New

Submit a Tab

FAQ

Links

Contact Us

Link to Us

MetalTabs.com logo

Bands

0-9

A

B

C

D

E

F

G

H

I

J

K

L

M

N

O

P

Q

R

S

T

U

V

W

X

Y

Z

Search

What

Where
 

Battlelore - "The Mark Of The Bear" Guitar Tab

Plain Text Version
More Battlelore Tabs

Hits: 3702
Rated: 5.00 out of 5 (1 vote)
Updated: 2005-09-15 06:09:21

 

By:

Darkenelf

sendpm.gif

email.gif

Important note
This tab is available online because we obtained explicit permission from Battlelore or their label.


#----------------------------------PLEASE NOTE---------------------------------#
#This file is the author's own work and represents their interpretation of the #
#song. You may only use this file for private study, scholarship, or research. #
#Unless specified otherwise, this is NOT an official tab from the band members.#
#------------------------------------------------------------------------------#

  Visit MetalTabs.com for more metal tablature
  
Band: Battlelore
Album: Sword's Song
Song: The Mark of the Bear

Copyright (c)  (Napalm Records) (2003)
Version 1.0 - (01-09-2005)

Transcribed By: Martijn Wietsma
Email:          asmundr@vikingblood.net


.  - palm mute           /  - slide up to
\  - slide down to       ~  - vibrato
h  - hammer on           b  - Bend
p  - pull off            Suffixes for bend
t  - tap                 f  - full bend    h - half bend
ph - pinched harmonic    q  - quarter bend t - tap bend
*  - see comment         ^  - Hold bend    r release bend
x  - Stuccatto           ~  - vibrato bend
,  - slight palm mute    () - ghost note, sustained note
"  - tremolo note        <> - Trill

Tuning E A D G B E

Intro: (keyboard riff)

A (0:38)
|-------------------------------------------------------------------|
|-------------------------------------------------------------------|
|-------------------------------------------------------------------|(2x)
|---------------------------------------------777-77-10p9-10p7------|
|-999-999-9910~--999-999-9910~--999-999-9910~-555-55--8-7--8-5------|
|-777-777-77-8---777-777-77-8---777-777-77-8------------------------|

(keyboard riff 0:59)

Repeat riff A 4x (1:17)

(1:56)
|-------------------------------------------------------------------|
|-------------------------------------------------------------------|
|-------------------------------------------------------------------|
|-------------------------------------------------------------------|
|-9~----------------------------------------------------------------|
|-7-----------------------------------------------------------------|

(1:57)(keyboard riff) + acoustic guitar in the back!
B (acoustic riff)
|----------------------------2-3~-3~--------------------------------|
|-5--7p3-(5)7---5--7p3-(5)7-----------------------------------------|
|----7-------------7------------------------------------------------|(4x)
|-------------------------------------------------------------------|
|-------------------------------------------------------------------|
|-------------------------------------------------------------------|

C (2:35)
|-------------------------------------------------------------------|
|-------------------------------------------------------------------|
|-66---6---66-66--77---7---77-77--66---6---66-66--77---7------------|(4x)
|-44-4-4-4-44-44--55-5-5-5-55-55--44-4-4-4-44-44--55-5-5-77-6-4-4---|
|--------------------------------------------------------55-4-2-2---|
|-------------------------------------------------------------------|

D (3:14)
|-------------------------------------------------------------------|
|-------------------------------------------------------------------|
|-------------------------------------------------------------------|(2x)
|-------------------------------------------------------------------|
|-99-999-99\7--99-999-12\11\9--99-999-99\7--99-999-7-5~-------------|
|-77-777-77\5--77-777-10\-9\7--77-777-77\5--77-777-5-3--------------|

(Keyboard riff) (3:14)

Repeat riff A (3:33) 6x (till end of song)

END

  Visit MetalTabs.com for more metal tablature

bottom separator

Contact Us | Privacy Policy | Disclaimer | Legal Notice
Copyright © 2001-2014 MetalTabs.com. All Rights Reserved.