top separator

Home

Forum

What's New

Submit a Tab

FAQ

Links

Contact Us

Link to Us

MuSpy.com

MetalTabs.com logo

Bands

0-9

A

B

C

D

E

F

G

H

I

J

K

L

M

N

O

P

Q

R

S

T

U

V

W

X

Y

Z

Search

What

Where
 

Ensiferum - "White Storm" Guitar Tab

Plain Text Version
More Ensiferum Tabs

Hits: 9330
Rated: 3.22 out of 5 (9 votes)
Updated: 2005-09-15 06:08:45

 

By:

Theoldman

sendpm.gif

email.gif

Important note
This tab is available online because we obtained explicit permission from Ensiferum or their label.


#----------------------------------PLEASE NOTE---------------------------------#
#This file is the author's own work and represents their interpretation of the #
#song. You may only use this file for private study, scholarship, or research. #
#Unless specified otherwise, this is NOT an official tab from the band members.#
#------------------------------------------------------------------------------#

  Visit MetalTabs.com for more metal tablature
  
Band:  Ensiferum
Album: 1997-1999
Song:  White Storm

Copyright (c)  Spinefarm 2005
Version 1.0 -  1.9.2005

Transcribed By: Theoldman
Email:          swordbearing@hotmail.com
________________________________________

.  - palm mute           /  - slide up to
\  - slide down to       ~  - vibrato
h  - hammer on           b  - Bend
p  - pull off            Suffixes for bend
t  - tap                 f  - full bend    h - half bend
ph - pinched harmonic    q  - quarter bend t - tap bend
*  - see comment         ^  - Hold bend    r release bend
x  - Stuccatto           ~  - vibrato bend
,  - slight palm mute    () - ghost note, sustained note
"  - tremolo note        <> - Trill

Tuning E A D G B E

Riff 1 (0:02-1:04)
|----------------------------------------------------------------|
|----------------------------------------------------------------|
|----------------------------------------------------------------|
|6-6-6-6-6-6-6-6-----------------9-9-9-9-9-9-9-9-----------------|
|4-4-4-4-4-4-4-4-6-6-6-6-6-6-6-6-7-7-7-7-7-7-7-7-9-9-9-9-9-9-9-9-|
|----------------4-4-4-4-4-4-4-4-----------------7-7-7-7-7-7-7-7-|

|------------------------------------------------------------------------|
|------------------------------------------------------------------------|
|11-11-11-11-11-11-11-11-------------------------------------------------|
|9--9--9--9--9--9--9--9--9-9-9-9-9-9-9-9-8-8-8-8-6-6-5-5-6-6-6-6-6-6-6-6-|
|------------------------7-7-7-7-7-7-7-7-6-6-6-6-4-4-3-3-4-4-4-4-4-4-4-4-|
|------------------------------------------------------------------------|



Solo 1 (1:05-1:16)
|------------------------|------------------------|
|------------------------|99-------99-77----------|
|99----66-99-88-------88-|------88----------99-88-|
|---66----------66-99----|---99----------99-------|
|------------------------|------------------------|
|------------------------|------------------------|



Solo 2 (1:17-1:28)
|----------------------------------|99-------99-77------------|
|1010-----------1010-99---------99-|------99----------1010-99-|
|----------1111--------------99----|---99----------99---------|
|-----1111--------------1111-------|--------------------------|
|----------------------------------|--------------------------|
|----------------------------------|--------------------------|



Riff 1 (1:30-1:42)



Riff 2 (1:43-1:48)
|------------------|
|------------------|
|------------------|
|6---6-9-11---11---|
|4---4-7-9----9----|
|------------------|



Solo 3 (1:49-2:00)
|--------------------------------|
|--------7---7-------------------|
|6---6-9---------9---9-6-8---8---|
|--------------------------------|
|--------------------------------|
|--------------------------------|



Solo 4 (2:01-2:13)
|----------------|----------------|
|----------------|----------------|
|9---988-------6-|8---9-8-6---8---|
|--------9---9---|-------9--------|
|----------------|----------------|
|----------------|----------------|

|----------------|----------------|
|----------------|----------------|
|9---988-------6-|8---9-8-6---6-8-|
|--------9---9---|-------9--6-----|
|----------------|----------------|
|----------------|----------------|

|----------------|----------------|
|----------------|----------------|
|9---988-------6-|8---9-8-6---8---|
|--------9---9---|-------9--------|
|----------------|----------------|
|----------------|----------------|

|----------------|----------------|
|----------------|----------------|
|9---988-------6-|8---9-8-6---4---|
|--------9---9---|-------9--------|
|----------------|----------------|
|----------------|----------------|



Solo 5 (2:14-2:25)
|--------------------------------|
|--------7---7-------------------|
|6---6-9---------9---9-6-8---8---|
|--------------------------------|
|--------------------------------|
|--------------------------------|

|--------------------------------|
|--------7---7---9---9-7---------|
|6---6-9-----------------9---9---|
|--------------------------------|
|--------------------------------|
|--------------------------------|



Solo 1 (2:26-2:31)

Solo 2 (2:32-2:37)

Solo 1 (2:38-2:44)



Riff 3 (2:45-2:56)
|-----------------------------------------------------------------------|
|-----------------------------------------------------------------------|
|-----------------------------------------------------------------------|
|-----------------------------------------------------------------------|
|44444444-66666666-77777777-99999999-77777777-66666666-4444444444444444-|
|-----------------------------------------------------------------------|
 ........ ........ ........ ........ ........ ........ ................



Solo 6 (2:57-3:08)
|-------------------------------------------------------------------|
|-------------------------------------------------------------------|
|6--------8--------9--------11-------9---11-9-8---9-8-6-------------|
|-------------------------------------------------------------------|
|-------------------------------------------------------------------|
|-------------------------------------------------------------------|



Riff 4 (3:09-3:21)
|---------------------------------------------------------------------------|
|---------------------------------------------------------------------------|
|---------------------------------------------------------------------------|
|---------------------------------------------------------------------------|
|44444444-66666666-77777777-99999999-7777-99-77-6666-77-66-4444444444444444-|
|---------------------------------------------------------------------------|
 ........ ........ ........ ........ .... .. .. .... .. .. ................



Riff 2 (3:22-3:27)

Solo 3 (3:28-3:39)

Solo 4 (3:40-3:52)

Solo 5 (3:53-4:17)

Riff 1 (4:18-5:07)



END

  Visit MetalTabs.com for more metal tablature

bottom separator

Contact Us | Privacy Policy | Disclaimer | Legal Notice
Copyright © 2001-2014 MetalTabs.com. All Rights Reserved.