top separator

Home

Forum

What's New

Submit a Tab

FAQ

Links

Contact Us

Link to Us

MuSpy.com

MetalTabs.com logo

Bands

0-9

A

B

C

D

E

F

G

H

I

J

K

L

M

N

O

P

Q

R

S

T

U

V

W

X

Y

Z

Search

What

Where
 

Atrophia Red Sun - "Nameless Rot" Guitar Tab

Plain Text Version
More Atrophia Red Sun Tabs

Hits: 2782
Rated: 4.67 out of 5 (3 votes)
Updated: 2005-09-15 06:05:27

 

By:

Robbie Filth

sendpm.gif

email.gif

Important note
This tab is available online because we obtained explicit permission from Atrophia Red Sun or their label.


#----------------------------------PLEASE NOTE---------------------------------#
#This file is the author's own work and represents their interpretation of the #
#song. You may only use this file for private study, scholarship, or research. #
#Unless specified otherwise, this is NOT an official tab from the band members.#
#------------------------------------------------------------------------------#

  Visit MetalTabs.com for more metal tablature
  
Band: Atrophia Red Sun
Album: Twisted Logic
Song: Nameless Rot
Record label: Empire Records
Tuning: C G C F A D

You will have to listen to the song to get it fully.

--------
--------
--------
--------
--1--4--
--1--4--

-----------------------------------------------------------
-----------------------------------------------------------
-----------------------------------------------------------
---------------------3/4-0----------------0-6-3------------
---5---5-----5----------------5---5-----5-------6-5-3-5-6--
-0---0---0-0---4-4-4--------0---0---0-0--------------------X4
pm   .   . .   . . .        .   .   . .

------------------------------------------------------------------
------------------------------------------------------------------
------------------------------------------------------------------
-7-7-7-7-7-7-7-7-4-4-4-4-4-4-4-4----------------------------------
-5-5-5-5-5-5-5-5-2-2-2-2-2-2-2-2-6-6-6-6-6-6-6-6-3-3-3-3-3-3-3-3--
---------------------------------6-6-6-6-6-6-6-6-3-3-3-3-3-3-3-3--X2

-------------------------------------------------------
-------------------------------------------------------
-------------------------------------------------------
-------------------------------------------------------
-10---------8---------6-----5---------5---------5------
----5-8-5-8---5-8-5-8---5-8---5-8-5-8---5-8-5-8---5-8--X3
    pm. . .   . . . .   . .   . . . .   . . . .   . .

---------------------------------------------------------
---------------------------------------------------------
---------------------------------------------------------
---------------------------------------------------------
-10---------8---------6-----5-------------5--------------
----5-8-5-8---5-8-5-8---5-8---5-8-5-8-5-8---5-8-5-8-5-8--
    pm. . .   . . . .   . .   . . . . . .   . . . . . .

------------------------------------------------------
------------------------------------------------------
------------------------------------------------------
------------------------------------------------------
-5---------3---------1-----0---------0---------0------
---0-3-0-3---0-3-0-3---0-3---0-3-0-3---0-3-0-3---0-3--X2
   pm. . .   . . . .   . .   . . . .   . . . .   . .

-------------------------------------------------------
-------------------------------------------------------
-------------------------------------------------------
-10---------8---------6-----5---------5---------5------
----5-8-5-8---5-8-5-8---5-8---5-8-5-8---5-8-5-8---5-8--
-------------------------------------------------------X2
    pm. . .   . . . .   . .   . . . .   . . . .   . .

-------------------------------------------------------
-------------------------------------------------------
-------------------------------------------------------
-------------------------------------------------------
-10---------8---------6-----5---------5---------5------
----5-8-5-8---5-8-5-8---5-8---5-8-5-8---5-8-5-8---5-8--
    pm. . .   . . . .   . .   . . . .   . . . .   . .

---------------------------------------------------------
---------------------------------------------------------
---------------------------------------------------------
---------------------------------------------------------
-10---------8---------6-----5-------------5--------------
----5-8-5-8---5-8-5-8---5-8---5-8-5-8-5-8---5-8-5-8-5-8--
    pm. . .   . . . .   . .   . . . . . .   . . . . . .

------------------------------------
------------------------------------
------------------------------------
------------------------------------
----------5---4---3-----------1--4--
-5-7-8-10---8---7---6-8-5-7-4-1--4--
 pm. . ..   .   .   . . . . .

---------------------------------
---------------------------------
---------------------------------
---------------------------------
----------------------------1-4--
-6-5-3-5--6-5-3-3-5---X4----1-4--
 pm. . .  . . . . .

---------------------------------
---------------------------------
---------------------------------
---------------------------------
-6-5-3-5--6-5-3-3-5---------1-4--
-6-5-3-5--6-5-3-3-5---X4----1-4--

----------------
----------------
----------------
----------------
-0-1-8---0-8-5--
-0-1-8---0-8-5--X4
let notes ring

----------------------------------------------------------------------
----------------------------------------------------------------------
----------------------------------------------------------------------
-5/7-----5/7-----5/7-----3/5-----3/5-----3/5-----2/4-----2/4-----2/4--
----------------------------------------------------------------------
-----0-0-----0-0-----0-0-----0-0-----0-0-----0-0-----0-0-----0-0------
     pm.     . .     . .     . .     . .     . .     . .     . .
---------------------
---------------------
---------------------
---------------------
-3/5-----3/5------0--
-----0-0-----0-0--0--
     pm.     . .

----------------------------------------------------------------------
----------------------------------------------------------------------
----------------------------------------------------------------------
----------------------------------------------------------------------
-3/5-----3/5-----3/5-----1/3-----1/3-----1/3-----0h2-----0h2-----0h2--
-----0-0-----0-0-----0-0-----0-0-----0-0-----0-0-----0-0-----0-0------
     pm.     . .     . .     . .     . .     . .     . .     . .
---------------------
---------------------
---------------------
---------------------
------------------0--
-3/5-0-0-3/5-0-0--0--
     pm.     . .

----------------------------------------------------------------------
----------------------------------------------------------------------
----------------------------------------------------------------------
-5/7-----5/7-----5/7--------------------------------------------------
-------------------------1/3-----1/3-----1/3-----0h2-----0h2-----0h2--
-----0-0-----0-0-----0-0-----0-0-----0-0-----0-0-----0-0-----0-0------
     pm.     . .     . .     . .     . .     . .     . .     . .
---------------------
---------------------
---------------------
---------------------
------------------0--
-3/5-0-0-3/5-0-0--0--
     pm.     . .


----------------------------------------------------------------------
----------------------------------------------------------------------
----------------------------------------------------------------------
----------------------------------------------------------------------
-3/5-----3/5-----3/5-----1/3-----1/3-----1/3-----0h2-----0h2-----0h2--
-----0-0-----0-0-----0-0-----0-0-----0-0-----0-0-----0-0-----0-0------
     pm.     . .     . .     . .     . .     . .     . .     . .
---------------------
---------------------
---------------------
---------------------
------------------0--
-3/5-0-0-3/5-0-0--0--
     pm.     . .

----------------------------------
----------------------------------
----------------------------------
-----------------7-5-4-5-4-1-4-0--
-0-------5-----0------------------
-0-0-0-0---0-0-0------------------X4
   pm. .   . .

---------------------------------------------------------
---------------------------------------------------------
---------------------------------------------------------
---------------------------------------------------------
-5-----3---6-----5---3---6-5-----3---6--6-5-3-5----------
---0-0---0---0-0---0---0-----0-0---0------------5-4-1-0--
   pm.   .   . .   .   .     . .   .    . . . . . . . .

---------------------------------------------------------
---------------------------------------------------------
---------------------------------------------------------
---------------------------------------------------------
-5-----3---6-----5---3---6-5-----3---6--7-5-4-5-4-1-4-0--
---0-0---0---0-0---0---0-----0-0---0---------------------
   pm.   .   . .   .   .     . .   .

---------------------------------------------------------
---------------------------------------------------------
---------------------------------------------------------
---------------------------------------------------------
-5-----3---6-----5---3---6-5-----3---6--6-5-3-5----------
---0-0---0---0-0---0---0-----0-0---0------------5-4-1-0--
   pm.   .   . .   .   .     . .   .    . . . . . . . .

---------------------------------------------------------
---------------------------------------------------------
---------------------------------------------------------
---------------------------------------------------------
-5-----3---6-----5---3---6-5-----3---6--7-5-4-5-4-1-4-0--
---0-0---0---0-0---0---0-----0-0---0---------------------
   pm.   .   . .   .   .     . .   .

-----------------------------------------------------------
-----------------------------------------------------------
-----------------------------------------------------------
---------------------3/4-0----------------0-6-3------------
---5---5-----5----------------5---5-----5-------6-5-3-5-6--
-0---0---0-0---4-4-4--------0---0---0-0--------------------X4
pm   .   . .   . . .        .   .   . .

------------------------------------------------------------------
------------------------------------------------------------------
------------------------------------------------------------------
-7-7-7-7-7-7-7-7-4-4-4-4-4-4-4-4----------------------------------
-5-5-5-5-5-5-5-5-2-2-2-2-2-2-2-2-6-6-6-6-6-6-6-6-3-3-3-3-3-3-3-3--
---------------------------------6-6-6-6-6-6-6-6-3-3-3-3-3-3-3-3--X2

-------------
-------------
----7--------
----5--4--6--
-5--5--2--4--
-5--5--------X4
 let notes ring

This song was quite difficult to work out so you got any corrections mail em
        ______________________________
                                      
to:      septic_flesh241@hotmail.com  
        ______________________________

  Visit MetalTabs.com for more metal tablature

bottom separator

Contact Us | Privacy Policy | Disclaimer | Legal Notice
Copyright © 2001-2014 MetalTabs.com. All Rights Reserved.