top separator

Home

Forum

What's New

Submit a Tab

FAQ

Links

Contact Us

Link to Us

MuSpy.com

MetalTabs.com logo

Bands

0-9

A

B

C

D

E

F

G

H

I

J

K

L

M

N

O

P

Q

R

S

T

U

V

W

X

Y

Z

Search

What

Where
 

Battlelore - "Khazad-dm pt.1 (Ages of Mithril)" Guitar Tab

Plain Text Version
More Battlelore Tabs

Hits: 2841
Rated: 4.50 out of 5 (2 votes)
Updated: 2005-09-15 05:34:56

 

By:

Darkenelf

sendpm.gif

email.gif

Important note
This tab is available online because we obtained explicit permission from Battlelore or their label.


#----------------------------------PLEASE NOTE---------------------------------#
#This file is the author's own work and represents their interpretation of the #
#song. You may only use this file for private study, scholarship, or research. #
#Unless specified otherwise, this is NOT an official tab from the band members.#
#------------------------------------------------------------------------------#

  Visit MetalTabs.com for more metal tablature
  
Band: Battlelore
Album: Where the Shadows lie
Song: Khazad-dum pt.1 (Ages of Mithril)

Copyright (c)  (Napalm Records)
Version 1.0 - (31-08-2005)

Transcribed By: Martijn Wietsma
Email:          asmundr@vikingblood.net


.  - palm mute           /  - slide up to
\  - slide down to       ~  - vibrato
h  - hammer on           b  - Bend
p  - pull off            Suffixes for bend
t  - tap                 f  - full bend    h - half bend
ph - pinched harmonic    q  - quarter bend t - tap bend
*  - see comment         ^  - Hold bend    r release bend
x  - Stuccatto           ~  - vibrato bend
,  - slight palm mute    () - ghost note, sustained note
"  - tremolo note        <> - Trill

Tuning E A D G B E

A
|-------------------------------------------------------------------|
|-------------------------------------------------------------------|
|------------------2------------------------------------------------|
|-666-666-666-666--2---666-666-666-666--7---------------------------|
|-444-444-444-444--0---444-444-444-444--5---------------------------|
|-------------------------------------------------------------------|

|-------------------------------------------------------------------|(3x)
|-------------------------------------------------------------------|
|------------------2------------------------------------------------|
|-666-666-666-666--2--------------------7---------------------------|
|-444-444-444-444--0---999-999-999-999--5---------------------------|
|----------------------777-777-777-777------------------------------|

B (0:56) (keyboard riff) (the pattern for guitar is below:)
|-------------------------------------------------------------------|
|-------------------------------------------------------------------|
|----2-----------------2--------------------------------------------|(2x)
|-6--2-----6--7-----6--2--------7-----------------------------------|
|-4--0-----4--5-----4--0-----9--5-----------------------------------|
|----------------------------7--------------------------------------|

repeat riff A 2x (1:32)

C (2:09)
|-------------------------------------------------------------------|
|-------------------------------------------------------------------|
|-------------------------------------------------------------------|
|----------2--------------------2-----------------------------------|
|-6---6-6--2---5-5-----6---6-6--2-5-7-------------------------------|
|-4-4-4-4--0-0-3-3-----4-4-4-4--0-3-5-------------------------------|
 p.m.................................

|-------------------------------------------------------------------|(2x)
|-------------------------------------------------------------------|
|-------------------------------------------------------------------|
|----------2--------------------------------------------------------|
|-6---6-6--2---5-5-----6---7--4---4-4-------------------------------|
|-4-4-4-4--0-0-3-3-----4-4-5--2-2-2-2-------------------------------|
 p.m.................................

D (2:27)
|-------------------------------------------------------------------|
|-------------------------------------------------------------------|
|------------2-2--2-----------------2-2-----------------------------|
|-6-6--6-6~--0-0--0-5-----6-6--6-6--0-0-5-7-------------------------|
|-4-4--4-4~---------3-----4-4--4-4------3-5-------------------------|
|-------------------------------------------------------------------|

|-------------------------------------------------------------------|(2x)
|-------------------------------------------------------------------|
|------------2-2--2-------------------------------------------------|
|-6-6--6-6~--0-0--0-5-----6-6-6-7--4~-------------------------------|
|-4-4--4-4~---------3-----4-4-4-5--2--------------------------------|
|-------------------------------------------------------------------|

E (2:46)
|-------------------------------------------------------------------|
|-------------------------------------------------------------------|
|-------------------------------------------------------------------|(2x)
|------2--55-55----4~---------2--55-55----7~------------------------|
|------2--33-33-7--2----------2--33-33-7--5-------------------------|
|-00-0-0--------5--------00-0-0--------5----------------------------|

F (3:04)
|-------------------------------------------------------------------|
|-------------------------------------------------------------------|
|-------------------------------------------------------------------|(4x)
|------------------55---4---------------------55---7----------------|
|------------------33-7-2---------------------33-7-5----------------|
|-000-000-000-000-----5-------000-000-000-000----5------------------|
 p.m.............             ...............

repeat riff F 4x (3:40)

Solo (3:40)
|---------------------7~-7p5----------------------------------------|
|-8p7h8-5~--5h7h8-7h8--------8-3~--(too fast to hear)---------------|
|-------------------------------------------------------------------|
|-------------------------------------------------------------------|
|-------------------------------------------------------------------|
|-------------------------------------------------------------------|

G (3:59)
|-------------------------------------------------------------------|
|-------------------------------------------------------------------|
|----2-----------------2--------------------------------------------|(2x)
|-6--2-----6--7-----6--2--------7-----------------------------------|
|-4--0-----4--5-----4--0-----9--5-----------------------------------|
|----------------------------7--------------------------------------|

H (4:35) (lead) (as well hard to hear, corrections would be welcome)
|-------------------------------------------------------------------|
|--------------------666888~--(too hard to hear---------------------|
|---7778885557777888------------------------------------------------|
|-5-----------------------------------------------------------------|
|-------------------------------------------------------------------|
|-------------------------------------------------------------------|

I (4:35) (chords)
|-------------------------------------------------------------------|
|-------------------------------------------------------------------|
|-------------------------------------------------------------------|
|-2------------------------------2----------------------------------|
|-0------------------------------0----------------------------------|
|-------------------------------------------------------------------|

J (4:40)
|-------------------------------------------------------------------|
|-------------------------------------------------------------------|
|-------------------------------------------------------------------|
|-------------------------------------------------------------------|
|-2-2--2-3-2---2-2--2-3-2---2-2--2-3-2---2-2--2-3-2-----------------|
|-0-0--0-1-0---0-0--0-1-0---0-0--0-1-0---0-0--0-1-0-----------------|
 p.m...............................................

|-------------------------------------------------------------------|(3x)
|-------------------------------------------------------------------|
|-------------------------------------------------------------------|
|----------------------------------------5-7-12-11------------------|
|-2-2--2-3-2---2-2--2-3-2---2-2--2-3-2---3-5-10--9------------------|
|-0-0--0-1-0---0-0--0-1-0---0-0--0-1-0------------------------------|
 p.m..................................

K
|-------------------------------------------------------------------|
|-------------------------------------------------------------------|
|-------------------------------------------------------------------|
|-------------------------------------------------------------------|
|-2-2--2-3-2---2-2--2-3-2---2-2--2-3-2---2-2--2-3-2-----------------|
|-0-0--0-1-0---0-0--0-1-0---0-0--0-1-0---0-0--0-1-0-----------------|
 p.m...............................................

|-------------------------------------------------------------------|(1x)
|-------------------------------------------------------------------|
|-------------------------------------------------------------------|
|----------------------------------------5-7-12-11--9~--------------|
|-2-2--2-3-2---2-2--2-3-2---2-2--2-3-2---3-5-10--9--7---------------|
|-0-0--0-1-0---0-0--0-1-0---0-0--0-1-0------------------------------|
 p.m..................................

END

  Visit MetalTabs.com for more metal tablature

bottom separator

Contact Us | Privacy Policy | Disclaimer | Legal Notice
Copyright © 2001-2014 MetalTabs.com. All Rights Reserved.