top separator

Home

Forum

FAQ

Contact Us

Link to Us

MetalTabs.com logo

Bands

0-9

A

B

C

D

E

F

G

H

I

J

K

L

M

N

O

P

Q

R

S

T

U

V

W

X

Y

Z

Rompeprop - "Dislocated Purple Stoma" Guitar Tab

Plain Text Version
More Rompeprop Tabs

Hits: 2944
Rated: 4.00 out of 5 (1 vote)
Updated: 2005-09-15 03:21:41

By:

Robbie Filth


#----------------------------------PLEASE NOTE---------------------------------#
#This file is the author's own work and represents their interpretation of the #
#song. You may only use this file for private study, scholarship, or research. #
#Unless specified otherwise, this is NOT an official tab from the band members.#
#------------------------------------------------------------------------------#

  Visit MetalTabs.com for more metal tablature
  
Band: Rompeprop
Album: Menstrual Stomphulk
Song: Dislocated Purple Stoma
Record Label: Bizarre Leprous Production
Tuning: G# C# F# B D# G#

--------------------------------------
--------------------------------------
--------------------------------------
-----3/4-----5/6-----3/4-12-----------
-5-5-1/2-5-5-3/4-5-5-1/2-10-5555-5-5--
-3-3-----3-3-----3-3--------3333-3-3--X4
 pm.     . .     . .        .... . .

--------------------------------------  
--------------------------------------  
--------------------------------------  
------3/4------5/6------3/4-12--------  
-5555-1/2-5555-3/4-5555-1/2-10-5-5-5--  
-3333-----3333-----3333--------3-3-3--  
 pm..     ....     ....        . . .       X2
--------------------------------------  
--------------------------------------  
--------------------------------------  
------3/4------5/6------3/4-----------  
-5555-1/2-5555-3/4-5555-1/2--5-5-5-5--  
-3333-----3333-----3333------3-3-3-3--  
 ....     ....     ....      . . . .    

--------------------------------------
--------------------------------------
--------------------------------------
-----3/4-----5/6-----3/4-12-----------
-5-5-1/2-5-5-3/4-5-5-1/2-10-5555-5-5--
-3-3-----3-3-----3-3--------3333-3-3--X2
 pm.     . .     . .        .... . .

-----------------------------
-----------------------------
-----------------------------
---8-7---8-7---8-7-12--------
-8-6-5-8-6-5-8-6-5-10-5-5-5--
-6-----6-----6--------3-3-3--X6
                      pm. .

--------------------------------------
--------------------------------------
--------------------------------------
------3/4------5/6------3/4------8\7--
-5555-1/2-5555-3/4-5555-1/2-5555-6\5--
-3333-----3333-----3333-----3333------X6
 pm..     ....     ....     ....

--------------------------------------
--------------------------------------
--------------------------------------
-----3/4-----5/6-----3/4-12-----------
-5-5-1/2-5-5-3/4-5-5-1/2-10-5555-5-5--
-3-3-----3-3-----3-3--------3333-3-3--
 pm.     . .     . .        .... .

Thats all for this song a great mosh song!!!!!
any corrections mail them to: septic_flesh241@hotmail.com

  Visit MetalTabs.com for more metal tablature

bottom separator

Contact Us | Privacy Policy | Disclaimer
Copyright © 2001-2014 MetalTabs.com. All Rights Reserved.