top separator

Home

Forum

What's New

Submit a Tab

FAQ

Links

Contact Us

Link to Us

MetalTabs.com logo

Bands

0-9

A

B

C

D

E

F

G

H

I

J

K

L

M

N

O

P

Q

R

S

T

U

V

W

X

Y

Z

Search

What

Where
 

Rompeprop - "Zuilzalf" Guitar Tab

Plain Text Version
More Rompeprop Tabs

Hits: 2658
Rated: 5.00 out of 5 (3 votes)
Updated: 2005-09-15 03:21:26

 

By:

Robbie Filth

sendpm.gif

email.gif

Important note
This tab is available online because we obtained explicit permission from Rompeprop or their label.


#----------------------------------PLEASE NOTE---------------------------------#
#This file is the author's own work and represents their interpretation of the #
#song. You may only use this file for private study, scholarship, or research. #
#Unless specified otherwise, this is NOT an official tab from the band members.#
#------------------------------------------------------------------------------#

  Visit MetalTabs.com for more metal tablature
  
Band: Rompeprop
Album: Menstrual Stomphulk
Song: Zuilzalf
Record Label: Bizarre Leprous Production
Tuning: G# C# F# B D# G#

----------------------------
----------------------------
----------------------------
----------------------------
10-11-7-5-5555555555555555--
-8--9-5-3-3333333333333333--X4
          pm..............

---------------------------------------
---------------------------------------
---------------------------------------
---------------------------------------
10-11-7----10-11-7-5-5555555555555555--
-8--9-5-----8--9-5-3-3333333333333333--
                     pm..............

-------------------------------------------------
-------------------------------------------------
-----------------------X3------------------------
-------------------------------------------------
10-11-7----10-11-7--8\7-555555--8\7-5-5-555-555--
-8--9-5-----8--9-5--6\5-333333--6\5-3-3-333-333--
                   _____pm...._______._._..._...__
                       repeat this just once

------------------
------------------
------------------
------------------
-8\7-5-5-555-555--
-6\5-3-3-333-333--X8
     pm. ... ...

--------------------------
--------------------------
--------------------------
--------------------------
10-11-7--8\7-5-5-555-555--
-8--9-5--6\5-3-3-333-333--X2
             pm. ... ...
__________________________
           repeat

--------------------------------
--------------------------------
--------------------------------
--------------------------------
10-11-7--8\7--5-55-5-55-55-5-5--
-8--9-5--6\5--3-33-3-33-33-3-3--X4
               pm.. . .. .. . .

-------------------------------------------------
-------------------------------------------------
-----------------------X3------------------------
-------------------------------------------------
10-11-7----10-11-7--8\7-555555--8\7-5-5-555-555--
-8--9-5-----8--9-5--6\5-333333--6\5-3-3-333-333--
                   _____pm...._______._._..._...__
                       repeat this just once

-----------------------------
-----------------------------
-----------ph--ph---ph---ph--
-----------5----5----5----5--
10-11-7----------------------
-8--9-5-33---33---33---33----X4
trem... pm   ..   ..   ..

------------------
------------------
------------------
------------------
-8\7-5-5-555-555--
-6\5-3-3-333-333--X8

--------
--------
--------
--------
10-11-7-
-8--9-5-

---------------------------------------------
---------------------------------------------
---------------------------------------------
---------------------------------------------
-5------------5-5----------5-5----------5-5--
-3------------3-3----------3-3----------3-3--
             pm            .            .

Thats all for this one.

any corrections mail them to septic_flesh241@hotmail.com

  Visit MetalTabs.com for more metal tablature

bottom separator

Contact Us | Privacy Policy | Disclaimer | Legal Notice
Copyright © 2001-2014 MetalTabs.com. All Rights Reserved.