top separator

Home

Forum

What's New

Submit a Tab

FAQ

Links

Contact Us

Link to Us

MetalTabs.com logo

Bands

0-9

A

B

C

D

E

F

G

H

I

J

K

L

M

N

O

P

Q

R

S

T

U

V

W

X

Y

Z

Search

What

Where
 

Rompeprop - "Swimming In Neanderthalers" Guitar Tab

Plain Text Version
More Rompeprop Tabs

Hits: 2535
Rated: 4.00 out of 5 (1 vote)
Updated: 2005-09-15 03:20:58

 

By:

Robbie Filth

sendpm.gif

email.gif

Important note
This tab is available online because we obtained explicit permission from Rompeprop or their label.


#----------------------------------PLEASE NOTE---------------------------------#
#This file is the author's own work and represents their interpretation of the #
#song. You may only use this file for private study, scholarship, or research. #
#Unless specified otherwise, this is NOT an official tab from the band members.#
#------------------------------------------------------------------------------#

  Visit MetalTabs.com for more metal tablature
  
Band: Rompeprop
Album: Hellcock's Pornflakes
Song: Swimming in Neanderthalers
Record Label: Bizarre Leprous Production
Tuning: G# C# F# B D# G#

-----------------
-----------------
-----------------
-----------------
-8-8-8-8-8-8-8-8-
-6-6-6-6-6-6-6-6-X8
 pm. . . . . .

------------------
------------------
------------------
------------------
10-9-7-6-7-9-10-9-
-8-7-5-4-5-7--8-7-X8

------------------
------------------
------------------
------------------
10-9-7-6-7-9-10-9-
-8-7-5-4-5-7--8-7-X8
trem.............

------------------
------------------
------------------
------------------
10-9-7-6-7-9-10-9-
-8-7-5-4-5-7--8-7-X4
pm . . . . .  . .

------------------
------------------
------------------
------------------
10-9-7-6-7-9-10-9-
-8-7-5-4-5-7--8-7-X8
trem.............

fill
----------
----------
----------
----------
10-7-8-10-
-8-5-6--8-

-----------------
-----------------
-----------------
-----------------
-4\3-4\3-4\3-4/6-
-4\3-4\3-4\3-4/6-X

-----------------
-----------------
-----------------
-----------------
-6\5-6\5-6\5-6/8-
-6\5-6\5-6\5-6/8-X4

-----------------------------------
-----------------------------------
-----------------------------------
-----------------------------------
-6\5-6\5-8-8-8-8--8\7-8\7-88888888-
-6\5-6\5-6-6-6-6--6\5-6\5-66666666-X2

------------------
------------------
------------------
------------------
10-9-7-6-7-9-10-9-
-8-7-5-4-5-7--8-7-X8

------------------
------------------
------------------
------------------
10-9-7-6-7-9-10-9-
-8-7-5-4-5-7--8-7-X8
trem.............

------------------
------------------
------------------
------------------
10-9-7-6-7-9-10-9-
-8-7-5-4-5-7--8-7-X4
pm . . . . .  . .

------------------
------------------
------------------
------------------
10-9-7-6-7-9-10-9-
-8-7-5-4-5-7--8-7-X4
trem.............

-----
-----
-----
-----
--7--
--5--

the end.

any corrections send em to septic_flesh241@hotmail.com

  Visit MetalTabs.com for more metal tablature

bottom separator

Contact Us | Privacy Policy | Disclaimer | Legal Notice
Copyright © 2001-2014 MetalTabs.com. All Rights Reserved.