top separator

Home

Forum

What's New

Submit a Tab

FAQ

Links

Contact Us

Link to Us

MuSpy.com

MetalTabs.com logo

Bands

0-9

A

B

C

D

E

F

G

H

I

J

K

L

M

N

O

P

Q

R

S

T

U

V

W

X

Y

Z

Search

What

Where
 

Rompeprop - "Crash Test Faggots" Guitar Tab

Plain Text Version
More Rompeprop Tabs

Hits: 2302
Rated: 4.00 out of 5 (1 vote)
Updated: 2005-09-15 03:20:08

 

By:

Robbie Filth

sendpm.gif

email.gif

Important note
This tab is available online because we obtained explicit permission from Rompeprop or their label.


#----------------------------------PLEASE NOTE---------------------------------#
#This file is the author's own work and represents their interpretation of the #
#song. You may only use this file for private study, scholarship, or research. #
#Unless specified otherwise, this is NOT an official tab from the band members.#
#------------------------------------------------------------------------------#

  Visit MetalTabs.com for more metal tablature
  
Band: Rompeprop
Album: Menstrual Stomphulk
Song: Crash Test Faggots
Record Label: Bizarre Leprous Production
Tuning: G# C# F# B D# G#

-----------
-----------
-----------
-----------
-7-10-8-7--
-5--8-6-5--
 pm . . .

listen to the song for the exact rythm
------------------------------------------------
------------------------------------------------
------------------------------------------------
------------------------------------------------
-55555555-7-555555-7-555555-7-55-10-55-7\5-7\5--
-33333333-5-333333-5-333333-5-33--8-33-5\3-5\3--X2
 pm......   ......   ......   ..    ..

------------------------------------------------
------------------------------------------------
------------------------------------------------
------------------------------------------------
-7\5-5555-7\5-5555-7\5-5555-7\55-10-55-7\5/7\5--
-5\3-3333-5\3-3333-5\3-3333-5\33--8-33-5\3/5\3--X2
     pm..     ....     ....   ..    ..

----------------------------------------
----------------------------------------
----------------------------------------
-----------5----------------------------
-5-55-8-55-3-55555--5-55-8-55-6-66-6-66-
-3-33-6-33---33333--3-33-6-33-4-44-4-44-X6
   pm   ..   .....    ..   ..   ..   ..

---------------------------------------
---------------------------------------
---------------------------------------
---------------------------------------
-5-7-6---8-10-8-7---5-7-6---8-10-8-10--
-3-5-4---6--8-6-5---3-5-4---6--8-6--8--X4
         pm.. . .           .  . .  .

----------------------------------------
----------------------------------------
----------------------------------------
-----------5----------------------------
-5-55-8-55-3-55555--5-55-8-55-6-66-6-66-
-3-33-6-33---33333--3-33-6-33-4-44-4-44-X3
   pm   ..   .....    ..   ..   ..   ..

---------------------
---------------------
---------------------
---------------------
-5-55-8-55-8-10-8-7--
-3-33-6-33-6--8-6-5--
   pm   .. .  . . .

------------------------------------------------
------------------------------------------------
------------------------------------------------
------------------------------------------------
-55555555-7-555555-7-555555-7-55-10-55-7\5-7\5--
-33333333-5-333333-5-333333-5-33--8-33-5\3-5\3--X2
 pm......   ......   ......   ..    ..

------------------------------------------------
------------------------------------------------
------------------------------------------------
------------------------------------------------
-7\5-5555-7\5-5555-7\5-5555-7\55-10-55-7\5/7\5--
-5\3-3333-5\3-3333-5\3-3333-5\33--8-33-5\3/5\3--X2
     pm..     ....     ....   ..    ..

thats all for this anthem ;)
any corrections or anything send em to me @:
septic_flesh241@hotmail.com

  Visit MetalTabs.com for more metal tablature

bottom separator

Contact Us | Privacy Policy | Disclaimer | Legal Notice
Copyright © 2001-2014 MetalTabs.com. All Rights Reserved.