top separator

Home

Forum

What's New

Submit a Tab

FAQ

Links

Contact Us

Link to Us

MetalTabs.com logo

Bands

0-9

A

B

C

D

E

F

G

H

I

J

K

L

M

N

O

P

Q

R

S

T

U

V

W

X

Y

Z

Search

What

Where
 

Razor - "Miami" Guitar Tab

Plain Text Version
More Razor Tabs

Hits: 4884
Rated: 5.00 out of 5 (6 votes)
Updated: 2005-09-14 22:32:49

 

By:

MetalThrashingMad

sendpm.gif

email.gif

Important note
We did our best to reach Razor and ask for their permission to publish this tab. Unfortunately they did not respond to our requests or we could not find a way to contact them. This tab is available online until Razor tells us to take it down.


#----------------------------------PLEASE NOTE---------------------------------#
#This file is the author's own work and represents their interpretation of the #
#song. You may only use this file for private study, scholarship, or research. #
#Unless specified otherwise, this is NOT an official tab from the band members.#
#------------------------------------------------------------------------------#

  Visit MetalTabs.com for more metal tablature
  
MIAMI
                              As recorded by Razor
                      (From the 1990 Album SHOTGUN JUSTICE)
                             (c) 1990 Steamhammer


Arranged by Razor
Transcribed by Steve Rubaszek


Gtr I (D G C F A D) - 'Guitar 1'
Gtr II (D G C F A D) - 'Guitar 2'


 0:00
  Q=236
 4/4
  Gtrs I, II
  W
|------|
|------|
|------|
|------|
|------|
|------|


   8/4
       PM------|      PM------|        PM     PM     PM--------|
    Q  E E E E E E Q  E E E E E E   Q  E E Q  E E Q  E E E E E E  3x
||--------------------------------|-------------------------------||
||o-------------------------------|------------------------------o||
||--------------------------------|-------------------------------||
||--------------------------------|-------------------------------||
||o-8------------6S7------------6S|=5----5S6----6S5--------------o||
||--6--0-0-0-0-0-4S5--0-0-0-0-0-4S|=3--0-3S4--0-4S3--0-0-0-0-0-0--||


  Gtr I
     PM------|      PM------|
  Q  E E E E E E Q  E E E E E E   Q  E E E E E E +H.       Q
|-------------------------------|------------------------------|
|-------------------------------|------------------------------|
|-------------------------------|------------------------------|
|-------------------------------|------------------------------|
|-8------------6S7------------6S|=5------------2-(2)------/7\--|
|-6--0-0-0-0-0-4S5--0-0-0-0-0-4S|=3--5p4h5p4p2-0-(0)-----------|
|
| Gtr II
|    PM------|      PM------|
| Q  E E E E E E Q  E E E E E E   Q  E E E E E E +W
|-------------------------------|------------------------------|
|-------------------------------|------------------------------|
|-------------------------------|------------------------------|
|-------------------------------|------------------------------|
|-8------------6S7------------6S|=5------------2-(2)-----------|
|-6--0-0-0-0-0-4S5--0-0-0-0-0-4S|=3--5p4h5p4p2-0-(0)-----------|


  PM----|       PM|       PM|
  S S S S Q  Q  S S Q     S S Q  E E E E
|----------------------------------------|
|----------------------------------------|
|----------------------------------------|
|--------------------------------6p5-----|
|---------8--7------6---------7----------|
|-0-0-0-0-------0-0-------0-0--------6S7-|
|
| W                   +W
|----------------------------------------|
|----------------------------------------|
|----------------------------------------|
|----------------------------------------|
|-2-------------------(2)----------------|
|-0-------------------(0)----------------|


  PM----|       PM|       PM|
  S S S S Q  Q  S S Q     S S Q  E E E E
|----------------------------------------|
|----------------------------------------|
|----------------------------------------|
|--------------------------------6p5-----|
|---------8--7------6---------7----------|
|-0-0-0-0-------0-0-------0-0--------6S7-|
|
| W                   +W
|----------------------------------------|
|----------------------------------------|
|----------------------------------------|
|----------------------------------------|
|-2-------------------(2)----------------|
|-0-------------------(0)----------------|


  PM----|       PM|     PM|
  S S S S Q  Q  S S Q   S S Q  E E E E
|--------------------------------------|
|--------------------------------------|
|--------------------------------------|
|------------------------------6p5-----|
|---------8--7------6-------7----------|
|-0-0-0-0-------0-0-----0-0--------6S7-|
|
| PM------------------------------------
| h          h        h        h
|--------------------------------------|
|--------------------------------------|
|--------------------------------------|
|--------------------------------------|
|-2----------2--------2--------2-------|
|-0----------0--------0--------0-------|


  PM----|       PM|      PM|
  S S S S Q  Q  S S Q    S S Q  E  E E E
|----------------------------------------|
|----------------------------------------|
|----------------------------------------|
|-------------------------------6p=5-----|
|---------8--7------6--------7-----------|
|-0-0-0-0-------0-0------0-0---------6S7-|
|
|-|
| W                   H         H
|----------------------------------------|
|----------------------------------------|
|----------------------------------------|
|----------------------------------------|
|-2--------------------------------------|
|-0-------------------x\--------x\-------|


   8/4
    Gtrs I, II
    PM----|       PM|    PM|
    S S S S Q  Q  S S Q  S S Q  E E E E
||--------------------------------------|
||o-------------------------------------|
||--------------------------------------|
||------------------------------6p5-----|
||o---------8--7------6------7----------|
||--0-0-0-0-------0-0----0-0--------6S7-|


  PM----|       PM|    PM|
  S S S S Q  Q  S S Q  S S Q  E E E E
|---------------------------------------||
|--------------------------------------o||
|---------------------------------------||
|-----------------------------6p5-------||
|---------8--7------6------7-----------o||
|-0-0-0-0-------0-0----0-0--------6S7---||


 2/4
  h
|------|
|------|
|------|
|------|
|-2----|
|-0----|


   0:35
    $
   4/4
       PM   PM         PM   PM         PM   PM
    Q  E Q  E E E   Q  E Q  E E E   Q  E Q  E E E
||----------------|---------------|---------------|
||o---------------|---------------|---------------|
||-------4----4S5-|------4----4S5-|---------------|
||-------2----2S3-|------2----2S3-|------5----5S6-|
||o-2-------------|-2-------------|-2----3----3S4-|
||--0--0----0-----|-0--0----0-----|-0--0----0-----|


  PM----------------------------|
  S S S S S S S S S S S S S S S S    4x
|------------------------------------||
|-----------------------------------o||
|------------------------------------||
|------------------------------------||
|-----------------------------------o||
|-0-0-0-0-0-0-0-0-0-0-0-0-0-0-0-0----||


   0:51, 1:07
    PM----|    PM----|      PM----|
                                       |-3-|
    S S S S Q  S S S S Q    S S S S Q  E E E
||------------------------|------------------|
||o-----------------------|------------------|
||------------------------|------------------|
||------------------------|------------------|
||o---------9----------9--|---------9--7-7-7-|
||--7-7-7-7-7--7-7-7-7-7--|-7-7-7-7-7--5-5-5-|


  PM----|    PM----|      PM----|
                                     |-3-|
  S S S S Q  S S S S Q    S S S S Q  E E E
|-----------------------|--------------------||
|-----------------------|-------------------o||
|-----------------------|--------------------||
|-----------------------|--------------------||
|---------9----------9--|---------9--3-3-3--o||
|-7-7-7-7-7--7-7-7-7-7--|-7-7-7-7-7--1-1-1---||


                                               PM|   PM|
  H    +Q   E E   H    +Q   E E   W          E E E E E E Q
|---------------|---------------|----------|----------------|
|---------------|---------------|----------|----------------|
|---------------|---------------|----------|----------------|
|-----------4S5-|-----------4S5-|----------|----------------|
|-2----(2)--2S3-|-2----(2)--2S3-|-2--------|-3-----4-----4--|
|-0----(0)------|-0----(0)------|-0--------|-1-1-1-2-2-2-2--|


                                                                     D.S.
                                    PM------|   PM------|
  H    +Q   E E   H    +Q   E E   S S S S S S S S S S S S E E   Q  Q  Q  Q
|---------------|---------------|-----------------------------|-------------|
|---------------|---------------|-----------------------------|-------------|
|---------------|---------------|-----------------------------|-------------|
|-----------4S5-|-----------4S5-|-----------------------------|-------------|
|-2----(2)--2S3-|-2----(2)--2S3-|-2-----------2-----------5-4-|-2-----------|
|-0----(0)------|-0----(0)------|-0-0-0-0-0-0-0-0-0-0-0-0-3-2-|-0-----------|


   1:38
       PM   PM         PM   PM         PM   PM
    Q  E Q  E E E   Q  E Q  E E E   Q  E Q  E Q    Q  Q  Q  Q
||----------------|---------------|--------------|---------------||
||o---------------|---------------|--------------|--------------o||
||----------------|---------------|--------------|---------------||
||--4----4----4S5-|-4----4----4S5-|--------------|-------7--5----||
||o-2--2-2--2-2S3-|-2--2-2--2-2S3-|-8----8----8--|-7--7--5--3---o||
||----------------|---------------|-6--6-6--6-6--|-5--5----------||


    H    +Q   E E   H    +Q   E E   H    +Q   Q    Q  Q  Q  Q
||----------------|---------------|--------------|---------------||
||o---------------|---------------|--------------|--------------o||
||----------------|---------------|--------------|---------------||
||--4----(4)--4S5-|-4----(4)--4S5-|--------------|-------7--5----||
||o-2----(2)--2S3-|-2----(2)--2S3-|-8----(8)--8--|-7--7--5--3---o||
||----------------|---------------|-6----(6)--6--|-5--5----------||


 1:54
 8/4
     PM      PM      PM      PM|      PM      PM      PM--------------|
  Q  E  E Q  E  E Q  E  E Q  E E   Q  E  E Q  E  E Q  S S E S S E S S E
|--------------------------------|--------------------------------------|
|--------------------------------|--------------------------------------|
|--------------------------------|--------------------------------------|
|-9----12S9----10S9----10S9------|-9----12S9----10S9--------------------|
|-7----10S7-----8S7-----8S7------|-7----10S7-----8S7--------------------|
|----0-------0-------0-------0-0-|----0-------0-------0-0-0-0-0-0-0-0-0-|


       PM      PM      PM      PM|      PM      PM
    Q  E  E Q  E  E Q  E  E Q  E E   Q  E  E Q  E  E Q   H.
||---------------------------------|----------------------------||
||o--------------------------------|---------------------------o||
||---------------------------------|----------------------------||
||--9----12S9----10S9----10S9------|-9----12S9----10S9----------||
||o-7----10S7-----8S7-----8S7------|-7----10S7-----8S7--10\----o||
||-----0-------0-------0-------0-0-|----0-------0---------------||


     PM      PM|    PM      PM|      PM      PM|
  Q  E  E Q  E E Q  E  E Q  E E   Q  E  E Q  E E W
|-------------------------------|---------------------|
|-------------------------------|---------------------|
|-------------------------------|---------------------|
|-9----10S9------9----12S9------|-9----10S9-----------|
|-7-----8S7------7----10S7------|-7-----8S7-----------|
|----0-------0-0----0-------0-0-|----0-------0-0------|


 8/4
  Gtr I
  PM----|       PM|       PM|
  S S S S Q  Q  S S Q     S S Q  E E E E
|----------------------------------------|
|----------------------------------------|
|----------------------------------------|
|--------------------------------6p5-----|
|---------8--7------6---------7----------|
|-0-0-0-0-------0-0-------0-0--------6S7-|
|
| Gtr II
| W                   +W
|----------------------------------------|
|----------------------------------------|
|----------------------------------------|
|----------------------------------------|
|-2-------------------(2)----------------|
|-0-------------------(0)----------------|


  PM----|       PM|       PM|
  S S S S Q  Q  S S Q     S S Q  E E E E
|------------------------------------------|
|------------------------------------------|
|------------------------------------------|
|--------------------------------6p5-------|
|---------8--7------6---------7------------|
|-0-0-0-0-------0-0-------0-0--------6S7---|
|
| W                   +W
|------------------------------------------|
|------------------------------------------|
|------------------------------------------|
|------------------------------------------|
|-2-------------------(2)------------------|
|-0-------------------(0)------------------|


  PM----|       PM|     PM|
  S S S S Q  Q  S S Q   S S Q  E E E E
|--------------------------------------|
|--------------------------------------|
|--------------------------------------|
|------------------------------6p5-----|
|---------8--7------6-------7----------|
|-0-0-0-0-------0-0-----0-0--------6S7-|
|
| PM---------------------------|
| h          h        h        h
|--------------------------------------|
|--------------------------------------|
|--------------------------------------|
|--------------------------------------|
|-2----------2--------2--------2-------|
|-0----------0--------0--------0-------|


                PM|      PM|
  S S S S Q  Q  S S Q    S S Q  E  E E E
|----------------------------------------|
|----------------------------------------|
|----------------------------------------|
|-------------------------------6p=5-----|
|---------8--7------6--------7-----------|
|-0-0-0-0-------0-0------0-0---------6S7-|
|
| W                   H         H
|----------------------------------------|
|----------------------------------------|
|----------------------------------------|
|----------------------------------------|
|-2--------------------------------------|
|-0-------------------x\--------x\-------|


    Gtrs I, II
    PM----|       PM|    PM|
    S S S S Q  Q  S S Q  S S Q  E E E E
||--------------------------------------|
||o-------------------------------------|
||--------------------------------------|
||------------------------------6p5-----|
||o---------8--7------6------7----------|
||--0-0-0-0-------0-0----0-0--------6S7-|


  PM----|       PM|    PM|
  S S S S Q  Q  S S Q  S S Q  E E E E
|----------------------------------------||
|---------------------------------------o||
|----------------------------------------||
|-----------------------------6p5--------||
|---------8--7------6------7------------o||
|-0-0-0-0-------0-0----0-0--------6S7----||


 2/4
  h
|------|
|------|
|------|
|------|
|-2----|
|-0----|


   4/4
       PM   PM         PM   PM         PM   PM
    Q  E Q  E E E   Q  E Q  E E E   Q  E Q  E E E
||----------------|---------------|---------------|
||o---------------|---------------|---------------|
||-------4----4S5-|------4----4S5-|---------------|
||-------2----2S3-|------2----2S3-|------5----5S6-|
||o-2-------------|-2-------------|-2----3----3S4-|
||--0--0----0-----|-0--0----0-----|-0--0----0-----|


  PM----------------------------|
  S S S S S S S S S S S S S S S S    4x
|------------------------------------||
|-----------------------------------o||
|------------------------------------||
|------------------------------------||
|-----------------------------------o||
|-0-0-0-0-0-0-0-0-0-0-0-0-0-0-0-0----||


    PM----|    PM----|      PM----|
                                       |-3-|
    S S S S Q  S S S S Q    S S S S Q  E E E
||------------------------|------------------|
||o-----------------------|------------------|
||------------------------|------------------|
||------------------------|------------------|
||o---------9----------9--|---------9--7-7-7-|
||--7-7-7-7-7--7-7-7-7-7--|-7-7-7-7-7--5-5-5-|


  PM----|    PM----|      PM----|
                                     |-3-|
  S S S S Q  S S S S Q    S S S S Q  E E E
|-----------------------|--------------------||
|-----------------------|-------------------o||
|-----------------------|--------------------||
|-----------------------|--------------------||
|---------9----------9--|---------9--3-3-3--o||
|-7-7-7-7-7--7-7-7-7-7--|-7-7-7-7-7--1-1-1---||


                                               PM|   PM|
  H    +Q   E E   H    +Q   E E   W          E E E E E E Q
|---------------|---------------|----------|----------------|
|---------------|---------------|----------|----------------|
|---------------|---------------|----------|----------------|
|-----------4S5-|-----------4S5-|----------|----------------|
|-2----(2)--2S3-|-2----(2)--2S3-|-2--------|-3-----4-----4--|
|-0----(0)------|-0----(0)------|-0--------|-1-1-1-2-2-2-2--|


                                    PM------|   PM------|
  H    +Q   E E   H    +Q   E E   S S S S S S S S S S S S E E
|---------------|---------------|-----------------------------|
|---------------|---------------|-----------------------------|
|---------------|---------------|-----------------------------|
|-----------4S5-|-----------4S5-|-----------------------------|
|-2----(2)--2S3-|-2----(2)--2S3-|-2-----------2-----------5-4-|
|-0----(0)------|-0----(0)------|-0-0-0-0-0-0-0-0-0-0-0-0-3-2-|


 4/4
     PM------------|          PM------------|
  Q  S S S S S S S S E E   Q  S S S S S S S S E E
|------------------------|------------------------|
|------------------------|------------------------|
|------------------------|------------------------|
|--------------------4S5-|--------------------4S5-|
|-2------------------2S3-|-2------------------2S3-|
|-0--0-0-0-0-0-0-0-0-----|-0--0-0-0-0-0-0-0-0-----|


     PM--------------------|      PM   PM
  Q  S S S S S S S S S S S S   Q  E Q  E E E
|----------------------------|---------------|
|----------------------------|---------------|
|----------------------------|---------------|
|----------------------------|---------------|
|-2--------------------------|-3----5----5S4-|
|-0--0-0-0-0-0-0-0-0-0-0-0-0-|-1--0-3--0-3S2-|


     PM------------|          PM------------|
  Q  S S S S S S S S E E   Q  S S S S S S S S E E
|------------------------|------------------------|
|------------------------|------------------------|
|------------------------|------------------------|
|--------------------4S5-|--------------------4S5-|
|-2------------------2S3-|-2------------------2S3-|
|-0--0-0-0-0-0-0-0-0-----|-0--0-0-0-0-0-0-0-0-----|


    PM----|     PM----|
  S S S S S S S S S S S S E E   Q  Q  Q  Q
|-----------------------------|--------------*|
|-----------------------------|--------------*|
|-----------------------------|--------------*|
|-----------------------------|--------------*|
|-2-----------2-----------2-2-|-2------------*|
|-0-0-0-0-0-0-0-0-0-0-0-0-0-0-|-0------------*|


Duration Legend
---------------
W - whole; H - half; Q - quarter; E - 8th; S - 16th;
T - 32nd; X - 64th; a - acciaccatura
+ - note tied to previous; . - note dotted; .. - note double dotted
Uncapitalized letters represent notes that are staccato (1/2 duration)
Irregular groupings are notated above the duration line
Duration letters will always appear directly above the note/fret number it
represents the duration for.  Duration letters with no fret number below them
represent rests.  Multi-bar rests are notated in the form Wxn, where n is the
number of bars to rest for.  Low melody durations appear below the staff

Tablature Legend
----------------
 h   - hammer-on
 p   - pull-off
 b   - bend
 pb  - pre-bend
 r   - bend release (if no number after the r, then release immediately)
 /\  - slide into or out of (from/to "nowhere")
 s   - legato slide
 S   - shift slide
<n>  - natural harmonic
[n]  - artificial harmonic
n(n) - tapped harmonic
 ~   - vibrato
 tr  - trill
 T   - tap
 TP  - trem. picking
 PM  - palm muting
\n/  - tremolo bar dip; n = amount to dip
 \n  - tremolo bar down
 n/  - tremolo bar up
/n\  - tremolo bar inverted dip
 =   - hold bend; also acts as connecting device for hammers/pulls
 <>  - volume swell (louder/softer)
 x   - on rhythm slash represents muted slash
 o   - on rhythm slash represents single note slash

Misc Legend
-----------
 |  - bar
||  - double bar
||o - repeat start
o|| - repeat end
*|  - double bar (ending)
 :  - bar (freetime)
 $  - Segno
 &  - Coda
Tempo markers - <E/E./Q/Q./H/H.> = BPM(8/16=s8/s16),
where s8 = swing 8ths, s16 = swing 16ths

  Visit MetalTabs.com for more metal tablature

bottom separator

Contact Us | Privacy Policy | Disclaimer | Legal Notice
Copyright © 2001-2014 MetalTabs.com. All Rights Reserved.