top separator

Home

Forum

What's New

Submit a Tab

FAQ

Links

Contact Us

Link to Us

MuSpy.com

MetalTabs.com logo

Bands

0-9

A

B

C

D

E

F

G

H

I

J

K

L

M

N

O

P

Q

R

S

T

U

V

W

X

Y

Z

Search

What

Where
 

Battlelore - "Journey to Undying Lands" Guitar Tab

Plain Text Version
More Battlelore Tabs

Hits: 3347
Rated: 3.50 out of 5 (2 votes)
Updated: 2005-09-14 21:55:32

 

By:

Darkenelf

sendpm.gif

email.gif

Important note
This tab is available online because we obtained explicit permission from Battlelore or their label.


#----------------------------------PLEASE NOTE---------------------------------#
#This file is the author's own work and represents their interpretation of the #
#song. You may only use this file for private study, scholarship, or research. #
#Unless specified otherwise, this is NOT an official tab from the band members.#
#------------------------------------------------------------------------------#

  Visit MetalTabs.com for more metal tablature
  
Band: Battlelore
Album: Where the Shadows lie
Song: Journey to Undying Lands

Copyright (c)  (Napalm Records)
(Version 1.0 - (31-08-2005)

Transcribed By: (Martijn Wietsma)
Email:          (asmundr@vikingblood.net)


.  - palm mute           /  - slide up to
\  - slide down to       ~  - vibrato
h  - hammer on           b  - Bend
p  - pull off            Suffixes for bend
t  - tap                 f  - full bend    h - half bend
ph - pinched harmonic    q  - quarter bend t - tap bend
*  - see comment         ^  - Hold bend    r release bend
x  - Stuccatto           ~  - vibrato bend
,  - slight palm mute    () - ghost note, sustained note
"  - tremolo note        <> - Trill

Tuning E A D G B E

A
|-------------------------------------------------------------------|
|-------------------------------------------------------------------|
|-------------------------------------------------------------------|(1x)
|-2~----------------------------------------------------------------|
|-2-----------------------------------------------------------------|
|-0-----------------------------------------------------------------|

B (0:20)
|-------------------------------------------------------------------|
|-------------------------------------------------------------------|
|-------------------------------------------------------------------|(1x)
|-2-----7-----5-----------------------------------------------------|
|-2-----5-----3-----5-5---------------------------------------------|
|-0-----------------3-3---------------------------------------------|

C (0:25)
|-------------------------------------------------------------------|
|-------------------------------------------------------------------|
|-------------------------------------------------------------------|(8x)
|-2-----2-----5-4--7~---5~------------------------------------------|
|-2-----2-----3-2--5-55-3-33-5-5------------------------------------|
|-0-0-0-0-0-0----------------3-3------------------------------------|

D (1:10)
|-------------------------------------------------------------------|
|-------------------------------------------------------------------|
|------------------7---9--------------------------------------------|(8x)
|-2-----2-----7-7--5---7-7-10p9h------------------------------------|
|-2-----2-----5-5----0-----------10~--------------------------------|
|-0-0-0-0-0-0-------------------------------------------------------|

repeat C 4x (1:56)

E (2:19) (great riff to play!)
|-------------------------------------------------------------------|
|-------------------------------------------------------------------|
|-------------------------------------------------------------------|(4x)
|-2-----2-----------2-----2-----------------------------------------|
|-2-----2----3~-----2-----2----55-3~--------------------------------|
|-0-000-0-0--1------0-000-0-0--33-1---------------------------------|
    ...               ...

(keyboard riff) 2x

F-chords (3:03)
|-------------------------------------------------------------------|
|-------------------------------------------------------------------|
|-------------------------------------------------------------------|(8x)
|-2222-222-222------------------------------------------------------|
|-2222-222-222------------------------------------------------------|
|-0000-000-000------------------------------------------------------|
  .... ... ...

F-lead (3:03)
|-------------------------------------------------------------------|
|-------------------------------------------------------------------|
|-4~--------4h5-4p2-4p2h---4----------------------------------------|(2x)
|----5~-2~---------------5-----5~-2~--------------------------------|
|-------------------------------------------------------------------|
|-------------------------------------------------------------------|

G (3:25)
|-------------------------------------------------------------------|
|-------------------------------------------------------------------|
|-------------------------------------------------------------------|(2x)
|--------------------------------------------------------77-5~------|
|--------------0h2h3---------------3p2h------------------55-3-------|
|-0-00-0-00-00--------0-00-0-00-00------5--0-00-0-00-00-------------|

repeat F-chords 8x (3:48)

H-lead (3:48)
|-------------------------------------------------------------------|
|-------------------------------------------------------------------|
|-4~-----------2h4h5~--4~------2~--4~---------2h4h5~--4~------------|(2x)
|----5p(4)p2~-------------5p4~--------5p(4)p2------------5p4~-2~----|
|-------------------------------------------------------------------|
|-------------------------------------------------------------------|

(keyboard riff) 2x

repeat riff E 4x (4:34)
repeat riff C 8x (4:56)

I
|-------------------------------------------------------------------|
|-------------------------------------------------------------------|
|-------------------------------------------------------------------|
|-2~----------------------------------------------------------------|
|-2-----------------------------------------------------------------|
|-0-----------------------------------------------------------------|

END

  Visit MetalTabs.com for more metal tablature

bottom separator

Contact Us | Privacy Policy | Disclaimer | Legal Notice
Copyright © 2001-2014 MetalTabs.com. All Rights Reserved.