top separator

Home

Forum

What's New

Submit a Tab

FAQ

Links

Contact Us

Link to Us

MuSpy.com

MetalTabs.com logo

Bands

0-9

A

B

C

D

E

F

G

H

I

J

K

L

M

N

O

P

Q

R

S

T

U

V

W

X

Y

Z

Search

What

Where
 

Gorerotted - "Her Gash I Did Slash" Guitar Tab

Plain Text Version
More Gorerotted Tabs

Hits: 3132
Rated: 5.00 out of 5 (1 vote)
Updated: 2005-09-14 21:49:24

 

By:

Robbie Filth

sendpm.gif

email.gif

Important note
This tab is available online because we obtained explicit permission from Gorerotted or their label.


#----------------------------------PLEASE NOTE---------------------------------#
#This file is the author's own work and represents their interpretation of the #
#song. You may only use this file for private study, scholarship, or research. #
#Unless specified otherwise, this is NOT an official tab from the band members.#
#------------------------------------------------------------------------------#

  Visit MetalTabs.com for more metal tablature
  
Band: Gorerotted
Album: Only Tools And Corpses
Song: Her Gash I Did Slash
Record Label: Metal Blade
Tuning: D G C F A D

---------------
---------------
---------------
---------------
-8\7--2-2-2-2--
-6\5--0-0-0-0--X19
      pm. . .

------------------
------------------
------------------
------------------
-8\7--2-2-2-2-22--
-6\5--0-0-0-0-00--
      pm. . . ..

------------------
------------------
------------------
------------------
------------------
-0-7-3-7-6-3-6-3--X4
 trem...........

Bass Bit

guitar comes back in with this.
------------------------------------------------------
------------------------------------------------------
-----------------------5-2-----4-1-----5-2-----4------
---------------------2-----3-1-----2-2-----3-1--------
------------------------------------------------------
-\\\\pick scrape\\\\-----------------------------0-3--X4
                                                 pm.

------------------
------------------
------------------
------------------
------------------
-0-7-3-7-6-3-6-3--X4
 trem...........

Bass Bit

guitar comes back in with this.
------------------------------------------------------
------------------------------------------------------
-----------------------5-2-----4-1-----5-2-----4------
---------------------2-----3-1-----2-2-----3-1--------
------------------------------------------------------
-\\\\pick scrape\\\\-----------------------------0-3--X2
                                                 pm.

-------------------------------------
-------------------------------------
----10-7-----9-6-----10-7-----9------
--7------8-6-----7-7------8-6--------
-------------------------------------
--------------------------------0-3--X2
                                pm.

-----------------------------------
-----------------------------------
----5-2-----4-1-----5-2-----4------
--2-----3-1-----2-2-----3-1--------
-----------------------------------
------------------------------0-3--X2
                              pm.

--------------------------
--------------------------
--------------------------
--------------------------
-22-22-22-22-22-22-22-22--
-00-00-00-00-00-00-00-00--
 pm .. .. .. .. .. .. ..

---------------
---------------
---------------
---------------
-8\7--2-2-2-2--
-6\5--0-0-0-0--X15
      pm. . .

------------------
------------------
------------------
------------------
-4-3-0-3-0-3-0-3--
-4-3-0-3-0-3-0-3--Repeats this until the end
     pm. . . . .

Any corrections mail them to septic_flesh241@hotmail.com

  Visit MetalTabs.com for more metal tablature

bottom separator

Contact Us | Privacy Policy | Disclaimer | Legal Notice
Copyright © 2001-2014 MetalTabs.com. All Rights Reserved.